Deftones

Digital bath tab

Deftones

Album:White Pony

Year:2000

tools Ultimate Tabs

Start AutoScroll Font Size Down Font Size Up

Find us on Facebook

chords
tabs
bass
ukulele
keyboards
drums
flute
harmonica
guitar pro
video
Ultimate-Tabs

Digital bath

Drop C tuning (low to high: C G C F A D)

There are two guitars to this song. 
Guitar two plays the same thing 
except the Verses, ?, and, ?Bridge?. ( I think ).

Verse: IF YOU LISTEN TO THE SONG CLOSELY, YOU'LL KNOW WHAT IM "SAYING"!
D|-----------------------------------------------------|
A|-----------------------------------------------------|
F|-----------------------------------------------------|
C|-4--0-0--7---0-4--0-0--6---0-4--0-0--7---0-4--0-0--7-|
G|-4--0-0--4---0-4--0-0--4---0-4--0-0--4---0-4--0-0--4-|
C|-4--0-0--4---0-4--0-0--4---0-4--0-0--4---0-4--0-0--4-|

Or you could do the VERSES like this: sounds good too.
D|-----------------|
A|-----------------|
F|-----------------|
C|--7----7-0-7---0-|
G|--4----4-0-4---0-|
C|--4----4-0-4---0-|

?:
D|--------------------------------------------|
A|--------------------------------------------|
F|----11--11-14-14-17--16----11--14-14-17--16-|
C|----x---x--x--x--x---x-----x---x--x--x---x--|
G|----9---9--12-12-15--14----9---12-12-15--14-|
C|-0------------------------------------------|

?:
D|----------------------|
A|----------------------|
F|----------------------|
C|-0-0--7---0-4--0-0--6-|
G|-0-0--4---0-4--0-0--4-|
C|-0-0--4---0-4--0-0--4-|

Pre - Chorus: 
D|------------------------|
A|------------------------|
F|------------------------|
C|-4b4--2~---2--4b4--2~---|
G|---------2-2----------2-|
C|-----------2------------|

Chorus:
D|---------------------------------|
A|-----------------------------3~--|
F|-----------------------------2~--|
C|-0-0-4--0-0-4--0-0-4--0-0-4--0~--|
G|-0-0-4--0-0-4--0-0-4--0-0-4--0~--|
C|-0-0-4--0-0-4--0-0-4--0-0-4--0---|

Verse:
D|-----------------------------|
A|-----------------------------|
F|-----------------------------|
C|-4--0-0--0-7---0-7--0-0--0-7-|
G|-4--0-0--0-4---0-4--0-0--0-4-|
C|-4--0-0--0-4---0-4--0-0--0-4-|

?:
D|----------------------------------------------|
A|----------------------------------------------|
F|----11--11-14-14-17--16---11--11-14-14-17--16-|
C|----x---x--x--x--x---x----x---x--x--x--x---x--|
G|----9---9--12-12-15--14---9---9--12-12-15--14-|
C|-0--------------------------------------------|

?: 
D|----------------------|
A|----------------------|
F|----------------------|
C|-0-0--7---0-6--0-0--6-|
G|-0-0--4---0-4--0-0--4-|
C|-0-0--4---0-4--0-0--4-|

Pre - Chorus: 
D|------------------------|
A|------------------------|
F|------------------------|
C|-4b4--2~---2--4b4--2~---|
G|---------2-2----------2-|
C|-----------2------------|

Chorus:
Guitar 1
D|----------------------------|
A|----------------------------|
F|----------------------------|
C|-0-0-4--0-0-4--0-0-4--0-0-4-|
G|-0-0-4--0-0-4--0-0-4--0-0-4-|
C|-0-0-4--0-0-4--0-0-4--0-0-4-|

Guitar 2
D|--------------------------------------|
A|--------------------------------------|
F|-------------------14-14-14-14--------|
C|-0-0-4--0-0-4--0-0-x--x--x--x---0-0-4-|
G|-0-0-4--0-0-4--0-0-12-12-12-12--0-0-4-|
C|-0-0-4--0-0-4--0-0--------------0-0-4-|

then it goes into: 

?bridge?:
Guitar 1
D|-------------------------------------------|
A|-------------------------------------------|
F|---9--9-11-12/11--9-7---9--9-11-12/11--9-7-|
C|---x--x-x---x-x---x-x---x--x-x---x-x---x-x-|
G|---7--7-9--10/9---7-5---7--7-9--10/9---7-5-|
C|-0-----------------------------------------|

Guitar 2
D|----------------------------------------|
A|----------------------------------------|
F|---11-11--11b-9~--4----11-11--11b-9~--4-|
G|---x--x----x--x---x--0-x--x----x--x---x-|
C|---9--9----9b-7~--2--0-9--9----9b-7~--2-|
C|-0-------------------0------------------|

Chorus:
Guitar 1
D|---------------------------------|
A|-----------------------------3~--|
F|-----------------------------2~--|
C|-0-0-4--0-0-4--0-0-4--0-0-4--0~--|
G|-0-0-4--0-0-4--0-0-4--0-0-4--0~--|
C|-0-0-4--0-0-4--0-0-4--0-0-4--0~--|

Guitar 2
D|------------------------------------------------|
A|------------------------------------------------|
F|-------------------14-14-14-14------14-14-14-14-|
C|-0-0-4--0-0-4--0-0-x--x--x--x---0-0-x--x--x--x--|
G|-0-0-4--0-0-4--0-0-12-12-12-12--0-0-12-12-12-12-|
C|-0-0-4--0-0-4--0-0--------------0-0-------------|

Verse:
D|-----------------------------------------------------|
A|-----------------------------------------------------|
F|-----------------------------------------------------|
C|-4--0-0--7---0-4--0-0--7---0-4--0-0--7---0-4--0-0--7-|
G|-4--0-0--4---0-4--0-0--4---0-4--0-0--4---0-4--0-0--4-|
C|-4--0-0--4---0-4--0-0--4---0-4--0-0--4---0-4--0-0--4-|

I guess Stephen plays the part of the guitar is top of the fret board. 
So if you hit it with a heavy distortion it will somewhat sound like it.
It works for me anyway. Hold for 1.5 seconds.

?:
Guitar 1
D|-------------------------------------------|
A|-------------------------------------------|
F|---9--9-11-12/11--9-7---9--9-11-12/11--9-7-|
C|---x--x-x---x-x---x-x---x--x-x---x-x---x-x-|
G|---7--7-9--10/9---7-5---7--7-9--10/9---7-5-|
C|-0-----------------------------------------|

Guitar 2
D|----------------------------------------|
A|----------------------------------------|
F|---11-11--11b-9~--4----11-11--11b-9~--4-|
G|---x--x----x--x---x--0-x--x----x--x---x-|
C|---9--9----9b-7~--2--0-9--9----9b-7~--2-|
C|-0-------------------0------------------|

Chorus:
Guitar 1
D|----------------------------|
A|----------------------------|
F|----------------------------|
C|-0-0-4--0-0-4--0-0-4--0-0-4-|
G|-0-0-4--0-0-4--0-0-4--0-0-4-|
C|-0-0-4--0-0-4--0-0-4--0-0-4-|

Guitar 2
D|--------------------------------------|
A|--------------------------------------|
F|-------------------14-14-14-14--------|
C|-0-0-4--0-0-4--0-0-x--x--x--x---0-0-4-|
G|-0-0-4--0-0-4--0-0-12-12-12-12--0-0-4-|
C|-0-0-4--0-0-4--0-0--------------0-0-4-|

?:
D|----------------------------------------------|
A|----------------------------------------------|
F|----11--11-14-14-17--16---11--11-14-14/17--16-|
C|----x---x--x--x--x---x----x---x--x--x--x---x--|
G|----9---9--12-12-15--14---9---9--12-12/15--14-|
C|-0--------------------------------------------|

Chorus:
Guitar 1
D|----------------------------|
A|----------------------------|
F|----------------------------|
C|-0-0-4--0-0-4--0-0-4--0-0-4-|
G|-0-0-4--0-0-4--0-0-4--0-0-4-|
C|-0-0-4--0-0-4--0-0-4--0-0-4-|

Guitar 2
D|--------------------------------------|
A|--------------------------------------|
F|-------------------14-14-14-14--------|
C|-0-0-4--0-0-4--0-0-x--x--x--x---0-0-4-|
G|-0-0-4--0-0-4--0-0-12-12-12-12--0-0-4-|
C|-0-0-4--0-0-4--0-0--------------0-0-4-|

:?
Guitar 1
D|-------------------------------------------|
A|-------------------------------------------|
F|---9--9-11-12/11--9-7---9--9-11-12/11--9-7-|
C|---x--x-x---x-x---x-x---x--x-x---x-x---x-x-|
G|---7--7-9--10/9---7-5---7--7-9--10/9---7-5-|
C|-0-----------------------------------------|

Guitar 2
D|----------------------------------------|
A|----------------------------------------|
F|---11-11--11b-9~--4----11-11--11b-9~--4-|
G|---x--x----x--x---x--0-x--x----x--x---x-|
C|---9--9----9b-7~--2--0-9--9----9b-7~--2-|
C|-0-------------------0------------------|

Chorus:
Guitar 1
D|---------------------------------|
A|-----------------------------3~--|
F|-----------------------------2~--|
C|-0-0-4--0-0-4--0-0-4--0-0-4--0~--|
G|-0-0-4--0-0-4--0-0-4--0-0-4--0~--|
C|-0-0-4--0-0-4--0-0-4--0-0-4--0~--|

Guitar 2
D|----------------------------------------------------|
A|-------------------------------------------------3~-|
F|-------------------14-14-14-14------14-14-14-14--2~-|
C|-0-0-4--0-0-4--0-0-x--x--x--x---0-0-x--x--x--x---0~-|
G|-0-0-4--0-0-4--0-0-12-12-12-12--0-0-12-12-12-12--0~-|
C|-0-0-4--0-0-4--0-0--------------0-0--------------0~-|

Don't tell me that part after the chorus is wrong 'cause I have the video
when the DEFTONES were on "The Tonight Show with Jay Leno" and Chino
 played it like that. anywayzXx...

Later homie beefs. 
less
plus
Add to Songbook Print Version How to play lesson Submit videolesson
Click the best TAGS for this song:
None of them
Contributor: patrWest Correct

If you can not find the chords or tabs you want, look at our partner E-chords. If you are a premium member, you have total access to our video lessons.

If you find a wrong Bad To Me from Deftones, click the correct button above.

login/signup
my songbooks
my recent views
my submits