Deftones

Engine No. 9 tab

Deftones

tools Ultimate Tabs

Start AutoScroll Font Size Down Font Size Up

Find us on Facebook

chords
tabs
bass
ukulele
keyboards
drums
flute
harmonica
guitar pro
video
Ultimate-Tabs

Engine No. 9

Tabber: c0z420 
Email:[email protected] 
 
INTRO:  
  1x 
e|--------------------------------0-------------------------------------| 
B|--------------------------------0-------------------------------------| 
G|--------------------------------0-------------------------------------| 
D|--------------------------------0-------------------------------------| 
A|----------------------------------------------------------------------| 
E|-2h3-2p0--2h3-2p0--2h3-2p0--2h3------2h3-2p0--2h3-2p0--2h3-2p0--2h5-5-| 
 
  2x (The DRUMS enters here) 
e|--------------------------------0-------------------------------------| 
B|--------------------------------0-------------------------------------| 
G|--------------------------------0-------------------------------------| 
D|-4/5-4-2--4/5-4-2--4/5-4-2--4/5-0----4/5-4-2--4/5-4-2--4/5-4-2--4/5-7-| 
A|-4/5-4-2--4/5-4-2--4/5-4-2--4/5------4/5-4-2--4/5-4-2--4/5-4-2--4/5-7-| 
E|-2/3-2-0--2/3-2-0--2/3-2-0--2/3------2/3-2-0--2/3-2-0--2/3-2-0--2/3-5-| 
 
  2x 
e|------0-------0-------0-------0---------------------| 
B|------0-------0-------0-------0---------------------| 
G|------0-------0-------0-------0---------------------| 
D|-4-4--0--4-4--0--4-4--0--4-4--0--8--8-8--7-7--5/7-5-| 
A|-4-4-----4-4-----4-4-----4-4-----8--8-8--7-7--5/7-5-| 
E|-2-2-----2-2-----2-2-----2-2-----6--6-6--5-5--3/5-3-| 
 
VERSE: 3x 
e|--------------------------------0-----------------------------------| 
B|--------------------------------0-----------------------------------| 
G|--------------------------------0-----------------------------------| 
D|-4-5-4-2--4-5-4-2--4-5-4-2--4-5-0--4-5-4-2--4-5-4-2--4-5-4-2--4-5-7-| 
A|-4-5-4-2--4-5-4-2--4-5-4-2--4-5----4-5-4-2--4-5-4-2--4-5-4-2--4-5-7-| 
E|-2-3-2-0--2-3-2-0--2-3-2-0--2-3----2-3-2-0--2-3-2-0--2-3-2-0--2-3-5-| 
  (-------------P.M.-------------)  (-------------P.M.-------------) 
 
PRE-VERSE: 
e|------------------------------------| 
B|------------------------------------| 
G|------------------------------------| 
D|------------------------------------| 
A|------------------------------------| 
E|-2h3-2p0--2h3-2p0--2h3-2p0--2h3-2p0-| 
 
BASS enters here, and then you play next 
 
INTERLUDE: 
  You play this 3x       |  And then you play this awsome part 8x. 
e|-----------------------|-------------------------------------|  
B|-----------------------|-------------------------------------|  
G|-----------------------|-------------------------------------| 
D|-2-4--2-4--2-4---8--2--|--4/5------4-----4--2-4/5---8--2-----| 
A|-2-4--2-4--2-4---8--2--|--4/5------4-----4--2-4/5---8--2-----| 
E|-0-2--0-2--0-2---6--0--|--2/3-0-0--2--0--2--0-2/3---6--0-----| 
                          P.M   ...    ...   ....... 
BRIDGE: 
e|------------------------------| 
B|------------------------------| 
G|------------------------------| 
D|--3--3--3--3--3--3-3-3-3-3-3--| 
A|--3--3--3--3--3--3-3-3-3-3-3--| 
E|--1--1--1--1--1--1-1-1-1-1-1--| 
   (-----------P.M.-----------) 
 
OUTRO: 4x 
e|------0-------0-------0-------0---------------------| 
B|------0-------0-------0-------0---------------------| 
G|------0-------0-------0-------0---------------------| 
D|-4-4--0--4-4--0--4-4--0--4-4--0--8--8-8--7-7--5/7-5-| 
A|-4-4-----4-4-----4-4-----4-4-----8--8-8--7-7--5/7-5-| 
E|-2-2-----2-2-----2-2-----2-2-----6--6-6--5-5--3/5-3-| 
 
 
less
plus
Add to Songbook Print Version How to play lesson Submit videolesson
Click the best TAGS for this song:
None of them
Contributor: isidtony Correct

If you can not find the chords or tabs you want, look at our partner E-chords. If you are a premium member, you have total access to our video lessons.

If you find a wrong Bad To Me from Deftones, click the correct button above.

login/signup
my songbooks
my recent views
my submits