Depeche Mode

Breathe (ver. 2) tab

Depeche Mode

tools Ultimate Tabs

Start AutoScroll Font Size Down Font Size Up

Find us on Facebook

chords
tabs
bass
ukulele
keyboards
drums
flute
harmonica
guitar pro
video
Ultimate-Tabs

Breathe (ver. 2)

Depeche Mode 
"Breathe" from Exciter (2001) 
 
The first part of theverse has two riffs that are repeated, an Am and a Gm riff: 
 
  Am(V)           Gm 
e|-------5--------------3--------------------------------------------------- 
B|-----5---8-7b-------3---6-5b---------------------------------------------- 
G|---5--------------3------------------------------------------------------- 
D|-7--------------5--------------------------------------------------------- 
A|-------------------------------------------------------------------------- 
E|-------------------------------------------------------------------------- 
 
The second part of the verse uses a Fm riff and a different Am riff: 
  Am           Fm 
e|-------0-----------1------------------------------------------------------ 
B|-----1-----------1-------------------------------------------------------- 
G|---2-----------1---------------------------------------------------------- 
D|-2-----------3----------------------------------------------------------- 
A|-------------------------------------------------------------------------- 
E|-------------------------------------------------------------------------- 
 
Strum Am and Fm chords on the bridge: 
    Am    Fm 
e|---0-----1---------------------------------------------------------------- 
B|---1-----1---------------------------------------------------------------- 
G|---2-----1---------------------------------------------------------------- 
D|---2-----3---------------------------------------------------------------- 
A|-------------------------------------------------------------------------- 
E|-------------------------------------------------------------------------- 
(note:  try vibratin' the whole Fm chord to get the cool little effect in some places on CD) 
 
The outro is like this x2 
e|-------0-------0---------------1-------1---------------------------------- 
B|-----1---1---3---3-1---------1---1---3---3-1------------------------------ 
G|---2-------2---------2-----1-------1---------1---------------------------- 
D|-2---------------------2-3---------------------3-------------------------- 
A|-------------------------------------------------------------------------- 
E|-------------------------------------------------------------------------- 
 
and then this once 
e|-------0-------0---------------1------------------------------------------ 
B|-----1---1---3---3-1---------1-------------------------------------------- 
G|---2-------1---------2-----1---------------------------------------------- 
D|-2---------------------2-3------------------------------------------------ 
A|-------------------------------------------------------------------------- 
E|-------------------------------------------------------------------------- 
 
and then repeat the whole outro thing again and again to fade.  So some idea of timings: 
 
 
 
less
plus
Add to Songbook Print Version How to play lesson Submit videolesson
Click the best TAGS for this song:
None of them
Contributor: Chorbrue Correct

If you can not find the chords or tabs you want, look at our partner E-chords. If you are a premium member, you have total access to our video lessons.

If you find a wrong Bad To Me from Depeche Mode, click the correct button above.

login/signup
my songbooks
my recent views
my submits