Depeche Mode

It Doesnt Matter Two tab

Depeche Mode

tools Ultimate Tabs

Start AutoScroll Font Size Down Font Size Up

Find us on Facebook

chords
tabs
bass
ukulele keyboards
drums
flute
harmonica
guitar pro video
Ultimate-Tabs

It Doesnt Matter Two

---------------------------------------------------------
                      Depeche Mode
                  It Doesn't Matter Two                               
---------------------------------------------------------

Intro
      Dm                                                  
      E  E  E  E  E  E  E  E     E  E  E  E  E  E  E  E   
E||---1-----1-----1-----1-----|--1-----1-----1-----1-----|
B||---3--3--3--3--3--3--3--3--|--3--3--3--3--3--3--3--3--|
G||*--2--2--2--2--2--2--2--2--|--2--2--2--2--2--2--2--2--|
D||*-----0-----0-----0-----0--|-----0-----0-----0-----0--|
A||---------------------------|--------------------------|
E||---------------------------|--------------------------|


  A#m                                                  
  E   E  E  E  E  E  E  E     E  E  E  E  E  E  E  E   
--1------1-----1-----1-----|--1-----1-----1-----1-----|
--2---2--2--2--2--2--2--2--|--2--2--2--2--2--2--2--2--|
--3---3--3--3--3--3--3--3--|--3--3--3--3--3--3--3--3--|
------3-----3-----3-----3--|-----3-----3-----3-----3--|
---------------------------|--------------------------|
---------------------------|--------------------------|


  Gm                                                  
  E  E  E  E  E  E  E  E     E  E  E  E  E  E  E  E   
--3-----3-----3-----3-----|--3-----3-----3-----3-----|
--3--3--3--3--3--3--3--3--|--3--3--3--3--3--3--3--3--|
--3--3--3--3--3--3--3--3--|--3--3--3--3--3--3--3--3--|
-----5-----5-----5-----5--|-----5-----5-----5-----5--|
--------------------------|--------------------------|
--------------------------|--------------------------|


  Dm                                                    
  E  E  E  E  E  E  E  E     E  E  E  E  E  E  E  E     
--1-----1-----1-----1-----|--1-----1-----1-----1------||
--3--3--3--3--3--3--3--3--|--3--3--3--3--3--3--3--3---||
--2--2--2--2--2--2--2--2--|--2--2--2--2--2--2--2--2--*||
-----0-----0-----0-----0--|-----0-----0-----0-----0--*||
--------------------------|---------------------------||
--------------------------|---------------------------||

    Dm
As I lay here with you
    A#m7
The shame lies with us
    Gm
We talk of love and trust
                   Dm
That doesn't matter


Though we may be the last in the world
   A#m7
We feel like pioneers
   Gm
Telling hopes and fears
              Dm
To one another

    Gm
And oh what a feeling 
  Dm
Inside of me
Gm                   F
It might last for an hour
Gm         
Wounds aren't healing 
  Dm
Inside of me
Gm                   F
Though it feels good now
A7/5-                Dm    
I know it's only for now


The feeling is intense
    A#m7
You grip me with your eyes
    Gm
And then I realise
                 Dm
It doesn't matter

   Dm                       
   E  E  E  E  E  E  E  E      E  E  E  E  E  E  E  E   
E|--1-----1-----1-----1-----|--1-----1-----1-----1-----|
B|--3--3--3--3--3--3--3--3--|--3--3--3--3--3--3--3--3--|
G|--2--2--2--2--2--2--2--2--|--2--2--2--2--2--2--2--2--|
D|-----0-----0-----0-----0--|-----0-----0-----0-----0--|
A|--------------------------|--------------------------|
E|--------------------------|--------------------------|

   A#m                       
   E   E  E  E  E  E  E  E     E  E  E  E  E  E  E  E   
|--1------1-----1-----1-----|--1-----1-----1-----1-----|
|--2---2--2--2--2--2--2--2--|--2--2--2--2--2--2--2--2--|
|--3---3--3--3--3--3--3--3--|--3--3--3--3--3--3--3--3--|
|------3-----3-----3-----3--|-----3-----3-----3-----3--|
|---------------------------|--------------------------|
|---------------------------|--------------------------|


   Gm                       
   E  E  E  E  E  E  E  E     E  E  E  E  E  E  E  E   
|--3-----3-----3-----3-----|--3-----3-----3-----3-----|
|--3--3--3--3--3--3--3--3--|--3--3--3--3--3--3--3--3--|
|--3--3--3--3--3--3--3--3--|--3--3--3--3--3--3--3--3--|
|-----5-----5-----5-----5--|-----5-----5-----5-----5--|
|--------------------------|--------------------------|
|--------------------------|--------------------------|
 

  Dm                       
  E  E  E  E  E  E  E  E     E  E  S S E  E  Q    E    
--1-----1-----1-----1-----|--1-----1-----------------||
--3--3--3--3--3--3--3--3--|--3--3----3-------3-------||
--2--2--2--2--2--2--2--2--|--2--2------2-----2-------||
-----0-----0-----0-----0--|-----0--------------------||
--------------------------|--------------------------||
--------------------------|--------------------------||


Duration Legend
---------------
W - whole
H - half
Q - quarter
E - 8th
S - 16th
T - 32nd
X - 64th
---------------

************************************************
Tabbed by Leonid Solovyov, [email protected]
************************************************
less
plus
Add to Songbook Print Version How to play lesson Submit videolesson
Click the best TAGS for this song:
None of them
Contributor: coneguit Correct

If you can not find the chords or tabs you want, look at our partner E-chords. If you are a premium member, you have total access to our video lessons.

If you find a wrong Bad To Me from Depeche Mode, click the correct button above.

login/signup
my songbooks
my recent views
my submits