Depeche Mode

It's no good tab

Depeche Mode

tools Ultimate Tabs

Start AutoScroll Font Size Down Font Size Up

Find us on Facebook

chords
tabs
bass ukulele keyboards
drums
flute
harmonica
guitar pro video
Ultimate-Tabs

It's no good

It's No Good 
Album: Ultra 1997
tab by dummy68

riff1
-------6-------3-----------------|
-8-------4-------1---------------|
---------------------------------|
---------------------------------|
---------------------------------|
---------------------------------|


                     Cm
I'm going to take my time
       Bb                Ab  Bb
I have all the time in the world
To make you mine
It is written in the stars above
The gods decree
You'll be right here by my side
Right next to me
You can run, but you cannot hide

              Cm
Don't say you want me
Don't say you need me
Don't say you love me
It's understood
Don't say you're happy
Out there without me
I know you can't be
'Cause it's no good

riff2
-------6-------3-----------------------------|
-8-------4-------1------------4--------------|
--------------------------------1-----0------|
---------------------------------------------|
---------------------------------------------|
---------------------------------------------|

I'll be fine 
I'll be waiting patiently 
Till you see the signs
And come running to my open arms 
When will you realise
Do we have to wait till our worlds collide
Open up your eyes
You can't turn back the tide 

Cm
Don't say you want me
Don't say you need me
Don't say you love me
It's understood
Don't say you're happy
Out there without me
I know you can't be
'cause it's no good

bridge

Cm
I'm going to take my time 
I have all the time in the world
To make you mine
It is written in the stars above

riff2
-------6-------3-----------------------------|
-8-------4-------1------------4--------------|
--------------------------------1-----0------|
---------------------------------------------|
---------------------------------------------|
---------------------------------------------|

Cm
Don't say you want me
Don't say you need me
Don't say you love me
It's understood
Don't say you're happy
Out there without me
I know you can't be
'cause it's no good
less
plus
Add to Songbook Print Version How to play lesson Submit videolesson
Click the best TAGS for this song:
None of them
Contributor: jamecray Correct

If you can not find the chords or tabs you want, look at our partner E-chords. If you are a premium member, you have total access to our video lessons.

If you find a wrong Bad To Me from Depeche Mode, click the correct button above.

login/signup
my songbooks
my recent views
my submits