Depeche Mode

Pipeline ukulele

Depeche Mode

tools Ultimate Tabs

Start AutoScroll Font Size Down Font Size Up

Find us on Facebook

chords
tabs
bass
ukulele
keyboards
drums
flute
harmonica
guitar pro
video
Ultimate-Tabs

Pipeline

Song: Pipeline
Band: Depeche Mode
Album: Construction time again
Year: 1983
Tabber: [email protected]
Tunning: DADGBE (it's easier to play the D chords which is low)



Chords (0:10)

D E   x5


 
Melody (0:25)

e--------------------|-------------|
b--------------------|-------------|
g--7-----------------|-------------|
d----10-9-9-10----9--|--7-7--------|
a--------------10----|-------10-7--|
d--------------------|-------------|



Verse (0:47)

D E
Get out the crane
D E
Construction time again
D E
What is it this time
D E
We’re laying a pipeline
D E
Let the beads of sweat flow
D E
Until the ends have met though
D E
Could take a long time
D E
Working on the pipeline


Chorus (1:22)

D E
Taking from the greedy
D E
Giving to the needy



Melody (1:35)

e--------------------|-------------|
b--------------------|-------------|
g--7-----------------|-------------|
d----10-9-9-10----9--|--7-7--------|
a--------------10----|-------10-7--|
d--------------------|-------------|



Verse (2:21)

e------------------------------|
b----------0--0----------------|
g------0-2------0-2-2---0-0----|
d----2----------------2-----2--|
a--2---------------------------|
d------------------------------|

D E
On this golden day
D E
Work’s been sent our way
D E
That could last a lifetime
D E
Working on the pipeline
D E
From the heart of our land
D E
To the mouth of the man
D E
Must reach him sometime
D E
We’re laying a pipeline



Chorus (2:57)

D E
Taking from the greedy
D E
Giving to the needy



Intrumental part 1 (3:05) 

Play the last verse's riff, the melody and keep playing the chords



Chorus (3:57)

D E
Taking from the greedy
D E
Giving to the needy



Chorus (4:09)

D E
Taking from the greedy
D E
Giving to the needy



Chorus (4:21)

D E
Taking from the greedy
D E
Giving to the needy



Chorus (4:32)

D E
Taking from the greedy
D E
Giving to the needy



Intrumental part 2 (4:40) 

Play the last verse's riff, the melody and the chords continue in the background.
The xylophone is playing someting close to the last verse's riff.
Repeat all that to the fade out
less
plus
Add to Songbook Print Version How to play lesson Submit videolesson
Click the best TAGS for this song:
None of them
Contributor: JTimSabr Correct

If you can not find the chords or tabs you want, look at our partner E-chords. If you are a premium member, you have total access to our video lessons.

If you find a wrong Bad To Me from Depeche Mode, click the correct button above.

login/signup
my songbooks
my recent views
my submits