tools Ultimate Tabs

Start AutoScroll Font Size Down Font Size Up

Find us on Facebook

chords
tabs
bass
ukulele keyboards
drums
flute
harmonica
guitar pro
video
Ultimate-Tabs

Rush

Riff 1   
------
e |-----------------|-----------------|-----------------|-----------------|
B |-----------------|-----------------|-----------------|-----------------|
G |-----------------|-------------7---|-----------------|-------------7---|
D |-2---------------|-4-----5---------|-----------------|-4-----5---------|
A |-----------------|-----------------|-----------------|-----------------|
E |-----------------|-----------------|-----------------|-----------------|
    Em              |                 |                 |                 |

e |-----------------|-----------------|(0)--------------|-3---------------|
B |-----------------|-----------------|(2)--------------|-3---------------|
G |-----------------|-----------------|-2---------------|-0---------------|
D |-----------------|-------------2---|-2---------------|-0---------------|
A |-2---------------|-4-----5---------|-0---------------|-x-----------2---|
E |-----------------|-----------------|-----------------|-----------------|
  | Bm              |                 | A               | G               |

Riff 2
------
e |-----------------|-----------------|-----------------|-----------------|
B |-----------------|-----------------|-----------------|-----------------|
G |-------4-----6---|-----------------|-----4-6-----7---|-----------------|
D |-4---------4-----|-----------------|-5---------5-----|-----------------|
A |-----------------|-------------2---|-----------------|-------------2---|
E |-----------------|-----------------|-----------------|-----------------|
  | Bm              |                 |                 |                 |

e |-----------------|-----------------|-----------------|-----------------|
B |-----------------|-----------------|-----------------|-----------------|
G |-2-----4-2---6---|-----------------|-6-----6-----7---|-----------------|
D |---4-------------|-----------------|---5-------5-----|-*(7)*-----------|
A |-----------------|-------------2---|-----------------|-----------------|
E |-----------------|-----------------|-----------------|-----------------|
  |                 |                 |                 | *=2nd time only |

Riff 3
------
e |-----------------|-----------------|-----------------|-----------------|
B |-----------------|-----------------|-----------------|-----------------|
G |-----------------|-------------7---|-----------------|-6-----7-----9---|
D |-2---------------|-4-----5---------|-----------------|-4-----5-----7---|
A |-----------------|-----------------|-----------------|-----------------|
E |-----------------|-----------------|-----------------|-----------------|
    Em              |                 |                 |                 |

Riff 4
------
e |-----------------|-----------------|-----------------|-----------------|
B |-----------------|-----------------|-----------------|-----------------|
G |-----------------|-------4-----6---|-----------------|-----4-6-----7---|
D |-----------------|-4---------4-----|-----------------|-5---------5-----|
A |-------------2---|-----------------|-------------2---|-----------------|
E |-----------------|-----------------|-----------------|-----------------|
  | Bm              |                 |                 |                 |

e |-----------------|-----------------|-----------------|-----------------|
B |-----------------|-----------------|-----------------|-----------------|
G |-----------------|-2-----4-2---6-7-|-----------------|-2-----4-2---6---|
D |-----------------|---4-------------|-----------------|---4-------------|
A |-------------2---|-----------------|-------------2---|-----------------|
E |-----------------|-----------------|-----------------|-----------------|
  |                 | A               | G               | Bm              |

e |-----------------|-----------------|-----------------|-----------------|
B |-----------------|-----------------|-----------------|-----------------|
G |-----------------|-4-----6-----7---|-----------------|-2-----4-2---6-7*|
D |-----------------|---5-------5-----|-----------------|---4-------------|
A |-------------2---|-----------------|-------------2---|-----------------|
E |-----------------|-----------------|-----------------|-----------------|
  |                 |                 | A               | G*Hold for a bar|

Riff 5 (Nb: not quite what's on the record but close enough:)
------
e |-----------------|-----------------|
B |-----------------|-----------------|
G |-----------------|-----------------|
D |x---11---1112----|-x---14--1411----|
A |-----------------|-----------------|
E |-----------------|-----------------|
  |Bm               |                 |


How to play it:
---------------
1st Verse/Chorus : Riff 1 (Starting at Em chord)
1st Break        : Riff 2
2nd Verse/Chorus : Riff 1 with B5 chords
2nd Break        : Riff 2 
3rd Break        : E5 at start, Riff 3 after 'That I saw for you'
Chorus           : Riff 4
Ending           : Riff 5 until end
 
less
plus
Add to Songbook Print Version How to play lesson Submit videolesson
Click the best TAGS for this song:
None of them
Contributor: holaCarl Correct

If you can not find the chords or tabs you want, look at our partner E-chords. If you are a premium member, you have total access to our video lessons.

If you find a wrong Bad To Me from Depeche Mode, click the correct button above.

login/signup
my songbooks
my recent views
my submits