tools Ultimate Tabs

Start AutoScroll Font Size Down Font Size Up

Find us on Facebook

chords
tabs
bass
ukulele keyboards
drums
flute
harmonica
guitar pro
video
Ultimate-Tabs

Coração Igual ao Teu

SOLO INTRO I} 
e|-----------------------------------------------------------| 
B|------------------------------15-17-18--17-----------------| 
G|-17--14-15-14--------14-15-17--------------17-14-/19-------| 
D|---------------15-17---------------------------------------| 
A|-----------------------------------------------------------| 
E|-----------------------------------------------------------| 
 
e|----------------------------------18h20--20v-----| 
B|-17h18p17---------18v---17-18-20-----------------| 
G|----------17-------------------------------------| 
D|-------------19----------------------------------| 
A|-------------------------------------------------| 
E|-------------------------------------------------| 
 
{SOLO INTRO II} 
e|-----------------------------------------------------6h8--8v-| 
B|-----------------------3-5-6--5----------6v-5--6-/8----------| 
G|-5--2-3-2-------2-3-5-----------5-2-/7-----------------------| 
D|-----------3-5-----------------------------------------------| 
A|-------------------------------------------------------------| 
E|-------------------------------------------------------------| 
less
plus
Add to Songbook Print Version How to play lesson Submit videolesson
Click the best TAGS for this song:
None of them
Contributor: Avrizeny Correct

If you can not find the chords or tabs you want, look at our partner E-chords. If you are a premium member, you have total access to our video lessons.

If you find a wrong Bad To Me from Diante do Trono, click the correct button above.

login/signup
my songbooks
my recent views
my submits