tools Ultimate Tabs

Start AutoScroll Font Size Down Font Size Up

Find us on Facebook

chords
tabs
bass
ukulele keyboards
drums
flute
harmonica
guitar pro
video
Ultimate-Tabs

Em Teus Atrios

Solo Intro: 
 
Guitarra com Distorção 
 
e------------------------------------------7-10-8-7----------------------------| 
B---------------------------------------------------10-8--7h8p7----------------| 
G------------------------------------7--9------------------------9-8—8h9~~~~---| 
D----c/volume----------------7-9-10--------------------------------------------| 
A---<<<<>>>----------7-9-10----------------------------------------------------| 
E--0--------0----7h10----------------------------------------------------------| 
 
e-----------------------------------------------/15-14-12----------------------| 
B--8--7---------8-7----------------------------------------15-15b(17)-----12~~-| 
G--------7—7h9-------7---s-----s---s--s-s------------------------------14-------| 
D-----------------------7/(9)—7/(9)\(7)/(5)\-----------------------------------| 
A------------------------------------------------------------------------------| 
E------------------------------------------------------------------------------| 
 
e-----------------------------7-10-8-7-----------------------------------------| 
B---------------------------------------10-8-7h8p7-----------------------------| 
G------------------------7-9------------------------9-8------------------------| 
D-----------------7-9-10-------------------------------------------------------| 
A----------7-9-10--------------------------------------------------------------| 
E-5/7--10----------------------------------------------------------------------| 
                                                          Harmônico natural C/alav. 
e-8-7--------------------------------------------------------------11-<12>-<24>-| 
B-----10-8—7h8p7---------------------------------12-13-------12-13--------------| 
G----------------9-8-----------------------12-14-------12-14--------------------| 
D-----------------------s---13-14-16-14-16--------------------------------------| 
A---------------------14/15-----------------------------------------------------| 
E-------------------------------------------------------------------------------| 
 
Solo 2: (0:54) e (2:27) 
e----------------------------------------s----s------s-------------------------| 
B-----8--7-----s-----8--7--------------12/(10)/(8)—12/(10)---------------------| 
G--7--------7-7/(9)--------7----s----------------------------------------------| 
D----------------------------7-7/(9)-- 9/( 7)/-(5)--9/( 7)---------------------| 
A------------------------------------------------------------------------------| 
E------------------------------------------------------------------------------| 
 
 
 
less
plus
Add to Songbook Print Version How to play lesson Submit videolesson
Click the best TAGS for this song:
None of them
Contributor: micdadoy Correct

If you can not find the chords or tabs you want, look at our partner E-chords. If you are a premium member, you have total access to our video lessons.

If you find a wrong Bad To Me from Diante do Trono, click the correct button above.

login/signup
my songbooks
my recent views
my submits