tools Ultimate Tabs

Start AutoScroll Font Size Down Font Size Up

Find us on Facebook

chords
tabs
bass
ukulele keyboards
drums
flute
harmonica
guitar pro
video
Ultimate-Tabs

Nos Braços do Pai

Solo 1 Guitarra  
 
Guitarra com distorção (02:32) 
e---------------------------------------------------------------| 
B-----------vibrato--vibrato----vibrato-----slide---------------| 
G---12—14—15~~~~---14~~~~~~--12~~~~~~--(12)\--------------------| 
D---------------------------------------------------------------| 
A---------------------------------------------------------------| 
E---------------------------------------------------------------| 
 
Solo 2 Guitarra – Na 3ª vez da base da Ministração 
 
Guitarra clean, bem suave (07:47) 
 Bb       Eb/Bb        Bb                         Eb/Bb  
|---------|-------------|-----------------------------|------------| 
|---------|-------s-----|---------------11-10---------|s-----------| 
|-5~~-5-7-|8~~~~-8/12~~~|~p(10)~~~~--10-------10----10|/12—(12)p10-| 
|---------|-------------|------------------------12---|------------| 
|---------|-------------|-----------------------------|------------| 
|---------|-------------|-----------------------------|------------| 
 
 
Solo 3 Guitarra 
 
Guitarra com distorção (10:04) 
               Dm                                     Em 
e-------------|--------------------------------------|----------------| 
B-------------|---vib-------vib----------11p10p8-----|s----10h11—13\s-| 
G------------9|-10~~--9h10-7~~~----9h10---------10-10|/12-------------| 
D-----9-10-12-|--------------------------------------|----------------| 
A--12---------|--------------------------------------|----------------| 
E-------------|--------------------------------------|----------------| 
 
 Am7        Bb Am7  Dm7 Em7 F                                G 
e-----------------|----------------------------------------------| 
B—11~~11-10-------|------------------12-13-15----------12-13-15--| 
G-----------10----|-7----9--10—10-12-14-------10-12-14-----------| 
D-----------------|----------------------------------------------| 
A-----------------|----------------------------------------------| 
E-----------------|----------------------------------------------| 
 
e-12-13-15------------------------------------------------------| 
B---------------------------------------------------------------| 
G---------------------------------------------------------------| 
D---------------------------------------------------------------| 
A---------------------------------------------------------------| 
E---------------------------------------------------------------| 
 
 
 
less
plus
Add to Songbook Print Version How to play lesson Submit videolesson
Click the best TAGS for this song:
None of them
Contributor: corkcork Correct

If you can not find the chords or tabs you want, look at our partner E-chords. If you are a premium member, you have total access to our video lessons.

If you find a wrong Bad To Me from Diante do Trono, click the correct button above.

login/signup
my songbooks
my recent views
my submits