tools Ultimate Tabs

Start AutoScroll Font Size Down Font Size Up

Find us on Facebook

chords
tabs
bass
ukulele keyboards
drums
flute
harmonica
guitar pro
video
Ultimate-Tabs

QUERO TOCAR-TE

Intr: 
    Eb   Bb/D     C/E      Eb/G   Bb      C 
E|--6--8--8---6p5---------------------------------------| 
B|-----------------8----5p3-6--5h6-8--/13-13------------| 
G|------------------------------------------------------| 
D|------------------------------------------------------| 
A|------------------------------------------------------| 
E|------------------------------------------------------| 
 
Inter:   
    F  C/E   D/F#             F/A   C   D/E      E  A9 
E|------------------------------------------------------| 
B|--7---5---/8-7--7-5-3----3-5-6----5---/8-7--7--8--10--| 
G|------------------------------------------------------| 
D|------------------------------------------------------| 
A|------------------------------------------------------| 
E|------------------------------------------------------| 
 
Solo: 
  C              Bm7               C                 Bm7 
E|---------------------------------------------------------------------| 
B|--12--12-14-12-12-10-9-10-/15----12----12-12-14-12-12-10-9-10--------| 
G|---------------------------------------------------------------------| 
D|---------------------------------------------------------------------| 
A|---------------------------------------------------------------------| 
E|---------------------------------------------------------------------| 
           Fm7          C/E                 D4 D         E4 E       D9 
E|---------------------------------------------------------------------| 
B|---------10--10-12-10-10-9-7-7h9------7h9-10-9-----7h9-10-12-10-9-10-| 
G|--9-7-9---------------------------7h9----------7h9-----------------9-| 
D|---------------------------------------------------------------------| 
A|---------------------------------------------------------------------| 
E|---------------------------------------------------------------------|  
less
plus
Add to Songbook Print Version How to play lesson Submit videolesson
Click the best TAGS for this song:
None of them
Contributor: sandamaj Correct

If you can not find the chords or tabs you want, look at our partner E-chords. If you are a premium member, you have total access to our video lessons.

If you find a wrong Bad To Me from Diante do Trono, click the correct button above.

login/signup
my songbooks
my recent views
my submits