tools Ultimate Tabs

Start AutoScroll Font Size Down Font Size Up

Find us on Facebook

chords
tabs
bass
ukulele keyboards
drums
flute
harmonica
guitar pro
video
Ultimate-Tabs

Tu Reinas

Aee pessoal mais uma TAB.  as notas podem ser tocadas tmbm (BASE) ok flw... 


Artista: Diante do Trono 
Musica: Tu Reinas 


Intro: 

    E  B/D#   C#m7  C#m7/B  A E/G#  A    A/B |    
E|-------11-------------------------------------| 
B|--12------12----------------------------------| 
G|-------------9--9-9-8-4-4h6---4-4h6--8-9-11---| 
D|----------------------------------------------| 
A|----------------------------------------------| 
E|----------------------------------------------| 
    E B/D#   C#m7  C#m7/B A  E/G#   F#m7 A/B    
E|------9-11-12-11-9---------9------9-11-12-12--| 
B|--12---------------12-9--------12-------------| 
G|------------------------9---------------------| 
D|----------------------------------------------| 
A|----------------------------------------------| 
E|----------------------------------------------| 

Reintro 1:35 

   | E |  %  | A/E | % | D6/E | % | B/E |    
E|-------11--------------------9----------------| 
B|--12------12------------10-----10-------------| 
G|-------------9--------------------11----------| 
D|----------------------------------------------| 
A|----------------------------------------------| 
E|----------------------------------------------| 

Ponte 3:08 
            D6/E           A/E         E             A/E  
E|-------------------------------------------------------| 
B|--9h10-12-12--12-12-10-9-5--9h10-12-12--12-12-10-9-12--| 
G|-------------------------------------------------------| 
D|-------------------------------------------------------| 
A|-------------------------------------------------------| 
E|-------------------------------------------------------| 
            D6/E           A/E  E   E 
E|-------------------------------------------------------| 
B|--9h10-12-12--12-12-10-9-5--7—5h7-5--------------------| 
G|-------------------------------------------------------| 
D|-------------------------------------------------------| 
A|-------------------------------------------------------| 
E|-------------------------------------------------------| 

Tag 3:50 
                F#m7        E/G#      A         C#m7  Bsus  
E|--14-16-19-16-17----16-14-12--11-10--------------------| 
B|------------------------------------12---10-------9----| 
G|--------------------------------------------11-9----11-| 
D|-------------------------------------------------------| 
A|-------------------------------------------------------| 
E|-------------------------------------------------------| 
           B 
E|-------------------------------------------------------| 
B|--9----------------------------------------------------| 
G|----9h11-9---------------------------------------------| 
D|-------------------------------------------------------| 
A|-------------------------------------------------------| 
E|-------------------------------------------------------| 

Final  
         D6   A                E            E  
E|-------------------------------------------------------| 
B|-----9-10-9-------9-10--9-------9----------------------| 
G|--11--------9--11---------11-10---11-10----------------| 
D|-------------------------------------------------------| 
A|-------------------------------------------------------| 
E|-------------------------------------------------------|  
less
plus
Add to Songbook Print Version How to play lesson Submit videolesson
Click the best TAGS for this song:
None of them
Contributor: ssssblon Correct

If you can not find the chords or tabs you want, look at our partner E-chords. If you are a premium member, you have total access to our video lessons.

If you find a wrong Bad To Me from Diante do Trono, click the correct button above.

login/signup
my songbooks
my recent views
my submits