S Dio

Holy Diver bass

Dio

Album:Evil or Divine

Year:2005

tools Ultimate Tabs

Start AutoScroll Font Size Down Font Size Up

Find us on Facebook

chords
tabs
bass
ukulele
keyboards
drums
flute
harmonica
guitar pro
video
Ultimate-Tabs

Holy Diver

HOLY DIVER 
DIO 
 HOLAOTRA VES....AA AKI LES TRAIGO OTRA TAB..DE BAJO DE DIO  
ES LA CANCION DE HOLY DIVER ES MUY FACIL  
CHEKENLA....ESTA COMPLETA...ASI K NO TENDRAN PROBLEMAS... 

INTRO EMPEIESAS DESPUES DEL EFECTO DE VIENTO COMO AL 1.20 MINUTOS O ALGO ASI 
  
INTRO 
G: --------------------------------------------------------------------------- 
D: --------------------------------------------------------------------------- 
A: -3-3-3-3-3-3-3-5-6-3-3-3-3-3-3-3-5-5-61-3-3-3-3-3-3-3-3-5-5-61-3-1-3/---- 
E: --------------------------------------------------------------------------- 

G: ------------------------------------------------------------------- 
D: ------------------------------------------------------------------- 
A: -3-3-3-3-3-3-3-5-6-3-3-3-3-3-3-3-5-5-6-1-3-3-3-3-3-3-3-3-5-5-6-3-1- 
E: ------------------------------------------------------------------4 

G: ------- 
D: ------- 
A: ---1~-- 
E: -4~---- 


VERSO 1 
G: ---------------------------------------------- 
D: ---------------------------------------------- 
A: -3-3-3-3-3-3-3-3-3-3-3-3-3-3-3-3-3-3-3- 
E: ---------------------------------------------4 

G: ------------------------------------------------------------------- 
D: ------------------------------------------------------------------- 
A: -3-3-3-3-3-3-1-1-1-1-1-1--------------------------------------- 
E: ----------------------------4-4-4-4-4-4-4-4-4-4-4-4-4---------- 

G: ---------------------------------------------- 
D: ---------------------------------------------- 
A: -3-3-3-3-3-3-3-3-3-3-3-3-3-3-3-3-3-3-3- 
E: ---------------------------------------------4 

G: ------------------------------------------------------------------- 
D: ------------------------------------------------------------------- 
A: -3-3-3-3-3-3-1-1-1-1-1-1-3--3-3-3--3-3-3--3-3-3--3-3-3--------- 
E: ------------------------------------------------------------------- 

PRECORO 
G: ------------------------------------------------------------------- 
D: ------------------------------------------------------------------- 
A: ------------------------------------------------------------------- 
E: -4--4-4-4--4-4-4--4-4-4-4-4-4------------------------------------- 

G: --------------------------------------------------------------------------- 
D: --------------------------------------------------------------------------- 
A: -3-3-3-3-3-3-3-5-6-3-3-3-3-3-3-3-5-5-61-3-3-3-3-3-3-3-3-5-5-61-3-1-3/---- 
E: --------------------------------------------------------------------------- 

VERSO 2 
G: ---------------------------------------------- 
D: ---------------------------------------------- 
A: -3-3-3-3-3-3-3-3-3-3-3-3-3-3-3-3-3-3-3- 
E: ---------------------------------------------4 

G: ------------------------------------------------------------------- 
D: ------------------------------------------------------------------- 
A: -3-3-3-3-3-3-1-1-1-1-1-1---------------------------1----------- 
E: ----------------------------4-4-4-4-4-4-4-4-4-4-4-------------- 

G: ---------------------------------------------- 
D: ---------------------------------------------- 
A: -3-3-3-3-3-3-3-3-3-3-3-3-3-3-3-3-3-3-3- 
E: ---------------------------------------------4 

G: ------------------------------------------------------------------- 
D: ------------------------------------------------------------------- 
A: -3-3-3-3-3-3-1-1-1-1-1-1-3--3-3-3--3-3-3--3-3-3--3-3-3--------- 
E: ------------------------------------------------------------------- 

PRECORO 
G: ------------------------------------------------------------------- 
D: ------------------------------------------------------------------- 
A: -----------------------------1--1-1-1--1-1-1--1-1-1--1-1-1--------- 
E: -4--4-4-4--4-4-4--4-4-4-4-4--------------------------------------- 

PRIMER SOLO 
G: ------------------------------------------------------------------- 
D: ------------------------------------------------------------------- 
A: -3-3-1-1------1-3-3--1-1-3-1---3-3-1-1------1-3-3--1-1-3/--- 
E: ---------4-4-4----------------------------4-4-4------------------ 

TERCER VERSO 
G: ---------------------------------------------- 
D: ---------------------------------------------- 
A: -3-3-3-3-3-3-3-3-3-3-3-3-3-3-3-3-3-3-3- 
E: ---------------------------------------------4 

G: ------------------------------------------------------------------- 
D: ------------------------------------------------------------------- 
A: -3-3-3-3-3-3-1-1-1-1-1-1---------------------------1----------- 
E: ----------------------------4-4-4-4-4-4-4-4-4-4-4-------------- 

G: ---------------------------------------------- 
D: ---------------------------------------------- 
A: -3-3-3-3-3-3-3-3-3-3-3-3-3-3-3-3-3-3-3- 
E: ---------------------------------------------4 

G: ------------------------------------------------------------------- 
D: ------------------------------------------------------------------- 
A: -3-3-3-3-3-3-1-1-1-1-1-1-3--3-3-3--3-3-3--3-3-3--3-3-3/-------- 
E: ------------------------------------------------------------------- 

SEGUNDO SOLO 
G: ------------------------------------------------------------------- 
D: ------1-------1-1-0-----1---------1-1-3-------1--------1-1-0---- 
A: -1-3---3-3-3-3-----1-3--3-3-3-3--------1-3---3-3-3--3-------- 
E: ------------------------------------------------------------------- 

G: ------------------------------------------------------------------- 
D: ------------------------------------------------------------------- 
A: ----------------------------1--1-1-1--1-1-1--1-1-1--1-1------------ 
E: -4--4-4-4--4-4-4--4-4-4--4-4--------------------------------------- 

G: ------------------------------------------------------------------- 
D: ------------------------------------------------------------------- 
A: ----------------------------1--1-1-1--1-1-1--1-1-1--1-0------------ 
E: -4--4-4-4--4-4-4--4-4-4--4-4--------------------------------------- 

G: ------------------------------------------------------------------- 
D: ------------------------------------------------------------------- 
A: ----------------------------1--1-1-1--1-1-1--1-1-1--3-1------------ 
E: -4--4-4-4--4-4-4--4-4-4--4-4--------------------------------------- 

CUARTO VERSO 
G: ---------------------------------------------- 
D: ---------------------------------------------- 
A: -3-3-3-3-3-3-3-3-3-3-3-3-3-3-3-3-3-3-3- 
E: ---------------------------------------------4 

G: ------------------------------------------------------------------- 
D: ------------------------------------------------------------------- 
A: -3-3-3-3-3-3-1-1-1-1-1-1---------------------------1----------- 
E: ----------------------------4-4-4-4-4-4-4-4-4-4-4-------------- 

G: ---------------------------------------------- 
D: ---------------------------------------------- 
A: -3-3-3-3-3-3-3-3-3-3-3-3-3-3-3-3-3-3-3- 
E: ---------------------------------------------4 

G: ------------------------------------------------------------------- 
D: ------------------------------------------------------------------- 
A: -3-3-3-3-3-3-1-1-1-1-1-1-3--3-3-3--3-3-3--3-3-3--3-3-3--------- 
E: ------------------------------------------------------------------- 

PRECORO 
G: ------------------------------------------------------------------- 
D: ------------------------------------------------------------------- 
A: -----------------------------1--1-1-1--1-1-1--1-1-1--1-1-1--------- 
E: -4--4-4-4--4-4-4--4-4-4-4-4--------------------------------------- 

G: ------------------------------------------------------------------- 
D: ------------------------------------------------------------------- 
A: -----------------------------1--1-1-1--1-1-1--1-1-1--3-1----------- 
E: -4--4-4-4--4-4-4--4-4-4--4-4--------------------------------------- 

FINAl 
G: ------------------------------------------------------------------- 
D: ------------------------------------------------------------------- 
A: -3-3-3-3-3-3-3-5-6--3-3-3-3-3-3-3-5-5-6-1-------------------------E: ------------------------------------------------------------------- 

G: ------------------------------------------------------------------- 
D: ------------------------------------------------------------------- 
A: -3-3-3-3-3-3-3-5-6--3-3-3-3-3-3-3-5-5-6-1-------------------------E: ------------------------------------------------------------------- 

G: ------------------------------------------------------------------- 
D: ------------------------------------------------------------------- 
A: -3-3-3-3-3-3-3-5-6--3-3-3-3-3-3-3-5-5-6-1-------------------------E: ------------------------------------------------------------------- 

G: ------------------------------------------------------------------- 
D: ------------------------------------------------------------------- 
A: -3-3-3-3-3-3-3-5-6--3-3-3-3-3-3-3-5-5-6-1------------------------E: ------------------------------------------------------------------- 

G: ------------------------------------------------------------------- 
D: ------------------------------------------------------------------- 
A: -3-3-3-3-3-3-3-5-6--3-3-3-3-3-3-3-5-5-6-1-------------------------E: ------------------------------------------------------------------- 

G: ------------------------------------------------------------------- 
D: ------------------------------------------------------------------- 
A: -3-3-3-3-3-3-3-5-6--3-3-3-3-3-3-3-5-5-6-1-------------------------E: ------------------------------------------------------------------- 

G: ------------------------------------------------------------------- 
D: ------------------------------------------------------------------- 
A: -3-3-3-3-3-3-3-5-6--3-3-3-3-3-3-3-5-5-6-1-------------------------E: ------------------------------------------------------------------- 

G: ------------------------------------------------------------------- 
D: ------------------------------------------------------------------- 
A: -3-3-3-3-3-3-3-5-6--3-3-3-3-3-3-3-5-5-6-1-------------------------E: ------------------------------------------------------------------- 

G: ------------------------------------------------------------------- 
D: ------------------------------------------------------------------- 
A: -3-3-3-3-3-3-3-5-6--3-3-3-3-3-3-3-5-5-6-1------------------------E: ------------------------------------------------------------------- 

G: ------------------------------------------------------------------- 
D: ------------------------------------------------------------------- 
A: -3-3-3-3-3-3-3-5-6--3-3-3-3-3-3-3-5-5-6-1-------------------------E: ------------------------------------------------------------------- 

BUENO ESO ES TODO PARA KUALKIER DUDA O SUJERENCIA omentadas de madrepalo k sea ami mail..ok 
[email protected] 
porfa si tienen alguna tablatura para bajo de dio del disco dream evil por fa pasenmela ok... 
saludos amis amigos del cbtis 237 y alos del grupo 113 de la facultad de humanidades de la uabc... 

jose lucero...  
less
plus
Add to Songbook Print Version How to play lesson Submit videolesson
Click the best TAGS for this song:
None of them
Contributor: davemyst Correct

If you can not find the chords or tabs you want, look at our partner E-chords. If you are a premium member, you have total access to our video lessons.

If you find a wrong Bad To Me from Dio, click the correct button above.

login/signup
my songbooks
my recent views
my submits