tools Ultimate Tabs

Start AutoScroll Font Size Down Font Size Up

Find us on Facebook

chords
tabs
bass
ukulele keyboards
drums
flute
harmonica
guitar pro
video
Ultimate-Tabs

Lady Writer

Intro:  
  
  
    A   B      C#m - B - A         A            B          C#m  
E|----------------------------------------7-------------------------|  
B|------7--4--4h5--4--5--4h5h4-----7b(9)-----(9)b7--5--7------5-----|  
G|--4/6--------------------------6-------------------------6-----6--|  
D|------------------------------------------------------------------|  
A|------------------------------------------------------------------|  
E|------------------------------------------------------------------|  
  
  
        A        B          C#m - B - A             B     Abm  
E|----------------------7-------------------------------------------|  
B|---------7--5--7b(9)-----(9)b7--5------------5h4------------------|  
G|--4-5-6----------------------------6-6--4h6-------6-4-------4-6/8-|  
D|-------------------------------------------------------6-6-6-------|  
A|------------------------------------------------------------------|  
E|------------------------------------------------------------------|  
  

less
plus
Add to Songbook Print Version How to play lesson Submit videolesson
Click the best TAGS for this song:
None of them
Contributor: mbonliss Correct

If you can not find the chords or tabs you want, look at our partner E-chords. If you are a premium member, you have total access to our video lessons.

If you find a wrong Bad To Me from Dire Straits, click the correct button above.

login/signup
my songbooks
my recent views
my submits