Dire Straits

Money for nothing tab

Dire Straits

Album:Money For Nothing

Year:1988

tools Ultimate Tabs

Start AutoScroll Font Size Down Font Size Up

Find us on Facebook

chords
tabs
bass ukulele keyboards drums
flute
harmonica
guitar pro
video
Ultimate-Tabs

Money for nothing

Mateus Biazzi - PR 

Intro: (G5 (4x) Bb C) 
  
e|--------------------------------------------------------------------------------- 
B|--------------------------------------------------------------------------------- 
G|--------------------------------------------------------------------------------- 
D|--------------------------------------------------------------------------------- 
A|---12----------------------10-x-12-10-8----12-----------------------8-xx-10-8-5-- 
E|---10--8-10-13-10 8-10-8-6-8--x-10-8--6----10--8-10-13-10 8-10-8-6--6-xx-8--6-3-- 
  
  
Chorus:  
  
We gotta install microwave ovens  
  
e--------------------------------  
b--------------------------------  
g---3-----------------3----------  
d---1-----------------3----------  
a--------------------------------  
E--------------------------------  
  
Custom kitchen deliveries  
  
e-------------------------------  
b-------------------------------  
g---3--------------5------------  
d---1--------------3------------  
a-------------------------------  
E-------------------------------  
  
We gotta move these refrigerators  
  
e------------------------------  
b------------------------------  
g--------7----------------------  
d--------5----------------------  
a------------------------------  
E------------------------------  
  
We gotta move these colour TV's  
  
e--------------------------------------  
b--------------------------------------  
g--5------------------7----------9-----  
d--5------------------7----------9-----  
a--------------------------------------  
E--------------------------------------  
  

less
plus
Add to Songbook Print Version How to play lesson Submit videolesson
Click the best TAGS for this song:
None of them
Contributor: delijazz Correct

If you can not find the chords or tabs you want, look at our partner E-chords. If you are a premium member, you have total access to our video lessons.

If you find a wrong Bad To Me from Dire Straits, click the correct button above.

login/signup
my songbooks
my recent views
my submits