tools Ultimate Tabs

Start AutoScroll Font Size Down Font Size Up

Find us on Facebook

chords tabs
bass
ukulele keyboards
drums
flute
harmonica
guitar pro
video
Ultimate-Tabs

Romeo and Juliet





Intro
|------|------|------|------|
|------|------|------|------|
|------|-1----|-3----|-1----|
|-1----|------|------|------|

Verse
|-----------|------------|----------|-----------|--------|----------|-------|---------------|
|-----------|------------|----------|-----------|--------|----------|-------|---------------|
|--------3--|-5-------3--|--------3-|-5--5-1--1-|-3----1-|-3--------|-1-----|-3-3-3-3-3-3-3-|
|-1---------|------------|-1--------|-----------|--------|-----1----|-------|---------------|

Chorus
|-----------|-----------------|----------------|-------------|
|-----------|-----------------|----------------|-------------|
|------3----|-5---5-3-1---1-3-|-------3-333----|-5--5-3-1----|
|-1--1----5-|-----------------|-1---1--------5-|-----------0-|

|-------------|-----------|--------------|-------------|
|-------------|-----------|--------------|-------------|
|-----3-1---3-|-5----1----|------------0-|-1--1-3-5--3-|
|-1-----------|-----------|-3--3--3--3---|-------------|

Solo
|-----------|---------|
|-----------|---------|
|-1---1---1-|-3---3---|
|-----------|---------|
 
less
plus
Add to Songbook Print Version How to play lesson Submit videolesson
Click the best TAGS for this song:
None of them
Contributor: gilscord Correct

If you can not find the chords or tabs you want, look at our partner E-chords. If you are a premium member, you have total access to our video lessons.

If you find a wrong Bad To Me from Dire Straits, click the correct button above.

login/signup
my songbooks
my recent views
my submits