Dire Straits

Romeo and Juliet tab

Dire Straits

Album:On the Night

Year:1993

tools Ultimate Tabs

Start AutoScroll Font Size Down Font Size Up

Find us on Facebook

chords
tabs
bass ukulele keyboards
drums
flute
harmonica
guitar pro
video
Ultimate-Tabs

Romeo and Juliet

Capo 4 

Intro: C F 

e|--0----------------------------0-----------------------------------| 
B|--------1-------------------1-----3p0---1-----------1------0h1-3p0-| 
G|-----0--------0----------0--------------------2---------0----------| 
D|--------------------0h2--------------------3-----------0-----------| 
A|--3--------------3-------------------------------------------------| 
E|-----------3----------------------------1--------1-----3-----------| 

e|--0-------------------------0------------------------------------0-| 
B|-------------------------1-----3p0---1-----------1------0h1-3p0----| 
G|-----------0----------0--------------------2-0-------0-------------| 
D|-----------------0h2--------------------3-----------0--------------| 
A|--3-----------3--------------------------------------------------3-| 
E|--------3----------------------------1--------1-----3--------------| 


Chorus 1: C G Am F 

e|------------------------------------------------------------------| 
B|------------1-------1-------------------1-----1-------------1-----| 
G|-------0-------0-------0--------0-------2-------------------0--0--| 
D|-----2------------2-------2----------2-----2-------------2--------| 
A|--3-----------------3---------2---0-----------0---2---3-----------| 
E|------------3-----------------------------------------------------| 

e|---------------------------------| 
B|-1-------------1-----1-----------| 
G|---------------2--2--------2-----| 
D|------------2------------2-------| 
A|-3---2---0-----------0---------0-| 
E|---------------------------------| 

Chorus 2: G C F 

e|-----------------------------------0---------------------------| 
B|------------3-------3--3---3---1--------------1-----1--------3-| 
G|------------0---0------0--0------------0------2--2--2--------0-| 
D|--------0--------------0-------------2--------3-----3--------0-| 
A|-----------------------------------3-----0---------------------| 
E|----3---------------3--3-------------------1--------1--1--3----| 
 
less
plus
Add to Songbook Print Version How to play lesson Submit videolesson
Click the best TAGS for this song:
None of them
Contributor: abcvmaxi Correct

If you can not find the chords or tabs you want, look at our partner E-chords. If you are a premium member, you have total access to our video lessons.

If you find a wrong Bad To Me from Dire Straits, click the correct button above.

login/signup
my songbooks
my recent views
my submits