tools Ultimate Tabs

Start AutoScroll Font Size Down Font Size Up

Find us on Facebook

chords
tabs
bass
ukulele
keyboards
drums
flute
harmonica
guitar pro
video
Ultimate-Tabs

All Quiet

-------------------------------------------------------------------------------
                             ALL QUIET - Driftless Pony Club
-------------------------------------------------------------------------------

Tuning: E Standard

x4
G|---000---000---000-222-----------------------------------------------------|
D|-22---222---222-----------0------------------------------------------------|
A|----------------------2-2--------------------------------------------------|
E|---------------------------------------------------------------------------|
x2
G|---------------------------------------------------------------------------|
D|---------0-0-0-0-2-2-2-2-2-2-2-2-------------------------------------------|
A|-3-3-3-3-------------------------------------------------------------------|
E|---------------------------------------------------------------------------|
x2
G|---------------------------------------------------------------------------|
D|-----55------77------99-------12-12\---------------------------------------|
A|-3--3--3-5--5--5-7--7--7-10-10---------------------------------------------|
E|---------------------------------------------------------------------------|
x4
G|---000---000---000-222-----------------------------------------------------|
D|-22---222---222-----------0------------------------------------------------|
A|----------------------2-2--------------------------------------------------|
E|---------------------------------------------------------------------------|
x2
G|---------------------------------------------------------------------------|
D|---------0-0-0-0-2-2-2-2-2-2-2-2-------------------------------------------|
A|-3-3-3-3-------------------------------------------------------------------|
E|---------------------------------------------------------------------------|
x2
G|---------------------------------------------------------------------------|
D|-----55------77------99-------12-12\---------------------------------------|
A|-3--3--3-5--5--5-7--7--7-10-10---------------------------------------------|
E|---------------------------------------------------------------------------|
x4
G|---------------------------0------------------2-22-2\----------------------|
D|---------00-000-0-22-222-2---2-0-2-22-2-4-44-4-----------------------------|
A|-33-333-3------------------------------------------------------------------|
E|---------------------------------------------------------------------------|
x4
G|---------------------------------------------------------------------------|
D|-----55------77------99-------12-12\---------------------------------------|
A|-3--3--3-5--5--5-7--7--7-10-10---------------------------------------------|
E|---------------------------------------------------------------------------|
x18
G|---------------------------------------------------------------------------|
D|-----5~--------------------------------------------------------------------|
A|-3~-----2~-----------------------------------------------------------------|
E|-----------3~--------------------------------------------------------------|
x1
G|---------------------------------------------------------------------------|
D|---------------------------------------------------------------------------|
A|-3~------------------------------------------------------------------------|
E|---------------------------------------------------------------------------|


| /  slide up
| \  slide down
| h  hammer-on
| p  pull-off
| ~  long tone
| +  harmonic
| x  Mute note
===============================================================================
less
plus
Add to Songbook Print Version How to play lesson Submit videolesson
Click the best TAGS for this song:
None of them
Contributor: DsrtAceF Correct

If you can not find the chords or tabs you want, look at our partner E-chords. If you are a premium member, you have total access to our video lessons.

If you find a wrong Bad To Me from Driftless Pony Club, click the correct button above.

login/signup
my songbooks
my recent views
my submits