S Dropkick Murphys

Boston Asphalt bass

Dropkick Murphys

tools Ultimate Tabs

Start AutoScroll Font Size Down Font Size Up

Find us on Facebook

chords
tabs
bass
ukulele
keyboards
drums
flute
harmonica
guitar pro
video
Ultimate-Tabs

Boston Asphalt


 

Intro	
1G--------------------------------
2D--------------------------------
3A33-3----------33----------
4E---------11-1-11----33------

Verse
1G------------------------------------------------------
2D------------------------------------------------------
3A3333------3333-------3333------------33------
4E---------1111-------3333-------111111----33-

Chorus (part 1)
1G-------------------------------------------------------------------------------
2D-------------------------------------------------------------------------------
3A-------------------------------------------------------------------------------
4E11111111-33333333-11111111-33333333-11111111-33333333
chorus contd	(part 2)							
1G--------------------------------
2D--------------------------------
3A33-3----------33----------
4E---------11-1-11----33------

intro x2
verse x2
chorus (part 1) x1
(part 2) x2
verse x2
chorus (part 1) x1
(part 2) x2
verse x2 
chorus (part 1) x1
(part 2) x2
 
less
plus
Add to Songbook Print Version How to play lesson Submit videolesson
Click the best TAGS for this song:
None of them
Contributor: chridrag Correct

If you can not find the chords or tabs you want, look at our partner E-chords. If you are a premium member, you have total access to our video lessons.

If you find a wrong Bad To Me from Dropkick Murphys, click the correct button above.

login/signup
my songbooks
my recent views
my submits