S Dropkick Murphys

Fields Of Athenry (ver. 2) tab

Dropkick Murphys

tools Ultimate Tabs

Start AutoScroll Font Size Down Font Size Up

Find us on Facebook

chords
tabs
bass
ukulele
keyboards
drums
flute
harmonica
guitar pro
video
Ultimate-Tabs

Fields Of Athenry (ver. 2)

-FIELDS OF ATHENRY- 
 
PART 1 (INTRO) 
	guitar 1 
e|-------------------------------------------------------------| 
B|-------------------------------------------------------------| 
G|--------------------8888888888888888-------------------------| 
D|--------------------888888888888888866666666-6-6-6-6-6-6-6-6-| 
A|--------------------666666666666666666666666-6-6-6-6-6-6-6-6-| 
E|------------------------------------44444444-4-4-4-4-4-4-4-4-| 
|                     ........................ . . . . . . . . 
|     guitar 2 
e|-------------------------------------------------------------| 
B|-------------------------------------------------------------| 
G|--------------------8-----------------------1010101010101010-| 
D|--3333-5-3-666-5-3-18---------------8-------1010101010101010-| 
A|--3333-3-3-333-3-3-16---------------6--------8-8-8-8-8-8-8-8-| 
E|------------------------------------6------------------------| 
 
PART 2 (VERSE) 
e|-------------------------------------------------------| 
B|-------------------------------------------------------| 
G|-88888888-88888888----------88888888-------------------| 
D|-88888888-88888888-66666666-88888888-88888888-88888888-| 
A|-66666666-66666666-66666666-66666666-88888888-88888888-| 
E|-------------------44444444----------66666666-66666666-| 
|   .. .. .  .. .. .  .. .. .  .. .. .  .. .. .  .. .. . 
| 
e|-------------------------------------------------------| 
B|-------------------------------------------------------| 
G|-----------------? ACOUSTIC STUFF ?--------------------| 
D|-------------------------------------------------------| 
A|-------------------------------------------------------| 
E|-------------------------------------------------------| 
 
PART 3 (VERSE) 
e|----------------------------------------------------------------| 
B|----------------------------------------------------------------| 
G|-88888888----------------------------88888888----------88888888-| 
D|-88888888-66666666-88888888-88888888-88888888-66666666-88888888-| 
A|-66666666-66666666-88888888-88888888-66666666-66666666-66666666-| 
E|----------44444444-66666666-66666666----------44444444----------| 
|   .. .. .  .. .. .  .. .. .  .. .. .  .. .. .  .. .. .  .. .. . 
| 
e|----------------------------------------------------------------| 
B|----------------------------------------------------------------| 
G|----------------------? ACOUSTIC STUFF ?------------------------| 
D|----------------------------------------------------------------| 
A|----------------------------------------------------------------| 
E|----------------------------------------------------------------| 
 
PART 4 (VERSE) 
e|--------------------------------------------| 
B|--------------------------------------------| 
G|---------------------------8888888888888888-| 
D|88888888-88888888-88888888-8888888888888888-| 
A|88888888-88888888-88888888-6666666666666666-| 
E|66666666-66666666-66666666------------------| 
|  .. .. . ........ ........ ........ 
| 
e|--------------------------------------------| 
B|--------------------------------------------| 
G|--? ACOUSTIC STUFF ?-------8888888888888888-| 
D|---------------------------8888888888888888-| 
A|---------------------------6666666666666666-| 
E|--------------------------------------------| 
                             ............ 
PART 5 (CHORUS) 
e|------------------------------------------------------------------------| 
B|------------------------------------------------------------------------| 
G|-88888888----------88888888-55555555-88888888-55555555------------------| 
D|-88888888-66666666-88888888-55555555-88888888-55555555-8888888888888888-| 
A|-66666666-66666666-66666666-33333333-66666666-33333333-8888888888888888-| 
E|----------44444444-------------------------------------6666666666666666-| 
| 
| 
e|------------------------------------------------------------------------| 
B|------------------------------------------------------------------------| 
G|-88888888----------88888888-55555555-88888888-55555555------------------| 
D|-88888888-66666666-88888888-55555555-88888888-55555555-8888888888888888-| 
A|-66666666-66666666-66666666-33333333-66666666-33333333-8888888888888888-| 
E|----------44444444-------------------------------------6666666666666666-| 
 
PART 6 (CHORUS) 
e|------------------------------------------------------------------------| 
B|------------------------------------------------------------------------| 
G|-88888888----------88888888----------------------------8888888888888888-| 
D|-88888888-66666666-88888888-88888888-88888888-88888888-8888888888888888-| 
A|-66666666-66666666-66666666-88888888-88888888-88888888-6666666666666666-| 
E|----------44444444----------66666666-66666666-66666666------------------| 
| 
| 
e|------------------------------------------------------------------------| 
B|------------------------------------------------------------------------| 
G|-88888888----------88888888----------------------------8888888888888888-| 
D|-88888888-66666666-88888888-88888888-88888888-88888888-8888888888888888-| 
A|-66666666-66666666-66666666-88888888-88888888-88888888-6666666666666666-| 
E|----------44444444----------66666666-66666666-66666666------------------| 
 
PART 7 
e|------------------------------------| 
B|------------------------------------| 
G|-------------------8888888888888888-| 
D|--8888888888888888-8888888888888888-| 
A|--8888888888888888-6666666666666666-| 
E|--6666666666666666------------------| 
| 
|  
e|------------------------------------| 
B|------------------------------------| 
G|-------------------8888888888888888-| 
D|--8888888888888888-8888888888888888-| 
A|--8888888888888888-6666666666666666-| 
E|--6666666666666666------------------| 
 
REPEAT PARTS 2,3,AND 4 
THEN DO... 
 
PART 8 (SOLO) 
e|------------------------------------------------------------------------| 
B|------------------------------------------------------------------------| 
G|-88888888----------88888888-55555555-88888888-55555555------------------| 
D|-88888888-66666666-88888888-55555555-88888888-55555555-8888888888888888-| 
A|-66666666-66666666-66666666-33333333-66666666-33333333-8888888888888888-| 
E|----------44444444-------------------------------------6666666666666666-| 
| 
| 
e|------------------------------------------------------------------------| 
B|------------------------------------------------------------------------| 
G|------------------------------------------------------------------------| 
D|-8--------10-8---66665------5--------5-5-8888-6----65--8888888888888888-| 
A|-------------------------668-------------------------868888888888888888-| 
E|-------------------------------------------------------6666666666666666-| 
 
PART 9 (SOLO) 
e|------------------------------------------------------------------------| 
B|------------------------------------------------------------------------| 
G|-88888888----------88888888----------------------------8888888888888888-| 
D|-88888888-66666666-88888888-88888888-88888888-88888888-8888888888888888-| 
A|-66666666-66666666-66666666-88888888-88888888-88888888-6666666666666666-| 
E|----------44444444----------66666666-66666666-66666666------------------| 
| 
| 
e|------------------------------------------------------------------------| 
B|------------------------------------------------------------------------| 
G|------------------------------------------------------------------------| 
D|-8--------10-8---66665---65---------3333-5-3-666-5-3-1-1----------------| 
A|---------------------------68-------------------------------------------| 
E|------------------------------------------------------------------------| 
 
PART 10 
e|------------------------------------| 
B|------------------------------------| 
G|------------------8888888888888888--| 
D|-8888888888888888-8888888888888888--| 
A|-8888888888888888-6666666666666666--| 
E|-6666666666666666-------------------| 
| 
| 
e|------------------------------------| 
B|------------------------------------| 
G|------------------------------------| 
D|-3333-5-36665-3-1-1-----------------| 
A|-3333-3-33333-3-1-1-----------------| 
E|------------------------------------| 
 
PART 11 
e|-------------------------------------------------------| 
B|-------------------------------------------------------| 
G|-88888888-88888888----------88888888-------------------| 
D|-88888888-88888888-66666666-88888888-88888888-88888888-| 
A|-66666666-66666666-66666666-66666666-88888888-88888888-| 
E|-------------------44444444----------66666666-66666666-| 
| 
| 
e|-------------------------------------------------------| 
B|-------------------------------------------------------| 
G|-88888888-88888888----------88888888-------------------| 
D|-88888888-88888888-66666666-88888888-88888888-88888888-| 
A|-66666666-66666666-66666666-66666666-88888888-88888888-| 
E|-------------------44444444----------66666666-66666666-| 
 
PART 12 
e|----------------------------------------------------------------| 
B|----------------------------------------------------------------| 
G|-88888888----------------------------88888888----------88888888-| 
D|-88888888-66666666-88888888-88888888-88888888-66666666-88888888-| 
A|-66666666-66666666-88888888-88888888-66666666-66666666-66666666-| 
E|----------44444444-66666666-66666666----------44444444----------| 
| 
| 
e|----------------------------------------------------------------| 
B|----------------------------------------------------------------| 
G|-88888888----------------------------88888888----------88888888-| 
D|-88888888-66666666-88888888-88888888-88888888-66666666-88888888-| 
A|-66666666-66666666-88888888-88888888-66666666-66666666-66666666-| 
E|----------44444444-66666666-66666666----------44444444----------| 
 
 
 
 
PART 13 
e|---------------------------------------------| 
B|---------------------------------------------| 
G|---------------------------88888888888888888-| 
D|88888888-88888888-88888888-88888888888888888-| 
A|88888888-88888888-88888888-66666666666666666-| 
E|66666666-66666666-66666666-------------------| 
| 
| 
e|---------------------------------------------| 
B|---------------------------------------------| 
G|---------------------------88888888888888888-| 
D|88888888-88888888-88888888-88888888888888888-| 
A|88888888-88888888-88888888-66666666666666666-| 
E|66666666-66666666-66666666-------------------| 
 
BAGPIPE SOLO 
AFTER SOLO... 
 
PART 14 
e|------------------------------------------------------------------------| 
B|------------------------------------------------------------------------| 
G|-88888888----------88888888----------------------------8888888888888888-| 
D|-88888888-66666666-88888888-88888888--8888888888888888-8888888888888888-| 
A|-66666666-66666666-66666666-88888888--8888888888888888-6666666666666666-| 
E|----------44444444----------66666666--6666666666666666------------------| 
|   .. .. .  .. .. .  .. .. . ...... 
| 
e|------------------------------------------------------------------------| 
B|------------------------------------------------------------------------| 
G|------------------------------------------------------------------------| 
D|------------------------------------------------------------------------| 
A|------------------------------------------------------------------------| 
E|------------------------------------------------------------------------| 
 
REPEAT PARTS 5 AND 6 (CHORUS) 
THEN DO... 
 
PART 15 (ENDING) 
e|-----------------------------------------| 
B|-----------------------------------------| 
G|--------------------------8------------8-| 
D|-8888888888888888-6-------8------------8-| 
A|-8888888888888888-6-------6------------6-| 
E|-6666666666666666-4----------------------| 
| 
| 
e|-----------------------------------------| 
B|-----------------------------------------| 
G|--------------------------8------------8-| 
D|-8888888888888888-6-------8------------8-| 
A|-8888888888888888-6-------6------------6-| 
E|-6666666666666666-4----------------------| 
 
.=palm mute 
 
 
less
plus
Add to Songbook Print Version How to play lesson Submit videolesson
Click the best TAGS for this song:
None of them
Contributor: shadosmo Correct

If you can not find the chords or tabs you want, look at our partner E-chords. If you are a premium member, you have total access to our video lessons.

If you find a wrong Bad To Me from Dropkick Murphys, click the correct button above.

login/signup
my songbooks
my recent views
my submits