S Dropkick Murphys

Pipebomb On Lansdowne tab

Dropkick Murphys

tools Ultimate Tabs

Start AutoScroll Font Size Down Font Size Up

Find us on Facebook

chords
tabs
bass
ukulele
keyboards
drums
flute
harmonica
guitar pro
video
Ultimate-Tabs

Pipebomb On Lansdowne

 
Song: Pipebomb On Lansdowne 
Artist: Dropkick Murphys 
Album: The Gang's All Here 
By: Mike Baker  
Email: [email protected] 
 
~: Let Ring 
 
Intro 
e|---------------------------------------------------------------------------| 
B|---------------------------------------------------------------------------| 
G|------2~--4~----------2~--4~--11-11-11-11-11-11-11-11----------------------| 
D|--4~--2~--4~--4~--4~--2~--4~--x--x--x--x--x--x--x--x-----------------------| 
A|--4~--0~--2~--4~--4~--0~--2~--9--9--9--9--9--9--9--9-----------------------| 
E|--2~----------2~--2~-------------------------------------------------------| 
 
Verse 1 
e|---------------------------------------------------------------------------| 
B|---------------------------------------------------------------------------| 
G|-------2222-4444------------------------5555-4-2---------------------------| 
D|--4444-2222-4444-4444--x2---4~--2~--4~--5555-4-2---------------------------| 
A|--4444-0000-2222-4444-------4~--2~--4~--3333-2-0---------------------------| 
E|--2222-----------2222-------2~--0~--2~-------------------------------------| 
 
Chorus 
e|---------------------------------------------------------------------------| 
B|---------------------------------------------------------------------------| 
G|-----------------555-4-2---------------------------------------------------| 
D|--4444-2222-4444-555-4-2--x2-----------------------------------------------| 
A|--4444-2222-4444-333-2-0---------------------------------------------------| 
E|--2222-0000-2222-----------------------------------------------------------| 
 
Verse 2 
e|---------------------------------------------------------------------------| 
B|---------------------------------------------------------------------------| 
G|-------2222-4444------------------------5555-4-2---------------------------| 
D|--4444-2222-4444-4444--x3---4~--2~--4~--5555-4-2---------------------------| 
A|--4444-0000-2222-4444-------4~--2~--4~--3333-2-0---------------------------| 
E|--2222-----------2222-------2~--0~--2~-------------------------------------| 
 
Chorus 
e|---------------------------------------------------------------------------| 
B|---------------------------------------------------------------------------| 
G|-----------------555-4-2---------------------------------------------------| 
D|--4444-2222-4444-555-4-2--x2--4~-------------------------------------------| 
A|--4444-2222-4444-333-2-0------4~-------------------------------------------| 
E|--2222-0000-2222--------------2~-------------------------------------------| 
 
Bridge 
e|---------------------------------------------------------------------------| 
B|---------------------------------------------------------------------------| 
G|------2~--4~----------2~--4~--11-11-11-11-11-11-11-11----------------------| 
D|--4~--2~--4~--4~--4~--2~--4~--x--x--x--x--x--x--x--x-----------------------| 
A|--4~--0~--2~--4~--4~--0~--2~--9--9--9--9--9--9--9--9-----------------------| 
E|--2~----------2~--2~-------------------------------------------------------| 
 
Verse 3 
e|---------------------------------------------------------------------------| 
B|---------------------------------------------------------------------------| 
G|-------2222-4444------------------------5555-4-2---------------------------| 
D|--4444-2222-4444-4444--x2---4~--2~--4~--5555-4-2---------------------------| 
A|--4444-0000-2222-4444-------4~--2~--4~--3333-2-0---------------------------| 
E|--2222-----------2222-------2~--0~--2~-------------------------------------| 
 
Chorus 
e|---------------------------------------------------------------------------| 
B|---------------------------------------------------------------------------| 
G|-----------------555-4-2-----------------555-4-2-555-4-2-555-4-2-----------| 
D|--4444-2222-4444-555-4-2--4444-2222-4444-555-4-2-555-4-2-555-4-2-4~--------| 
A|--4444-2222-4444-333-2-0--4444-2222-4444-333-2-0-333-2-0-333-2-0-4~--------| 
E|--2222-0000-2222----------2222-0000-2222-------------------------2~--------| 
 
Outro 
e|---------------------------------------------------------------------------| 
B|---------------------------------------------------------------------------| 
G|--5-4-2--------------------------------------------------------------------| 
D|--5-4-2-4------------------------------------------------------------------| 
A|--3-2-0-4------------------------------------------------------------------| 
E|--------2------------------------------------------------------------------| 
=============================================================================== 
 
 
less
plus
Add to Songbook Print Version How to play lesson Submit videolesson
Click the best TAGS for this song:
None of them
Contributor: txudbob_ Correct

If you can not find the chords or tabs you want, look at our partner E-chords. If you are a premium member, you have total access to our video lessons.

If you find a wrong Bad To Me from Dropkick Murphys, click the correct button above.

login/signup
my songbooks
my recent views
my submits