Dumb Fucks

Jesus Died For You Not Me tab

Dumb Fucks

chords
tabs
bass
ukulele
keyboards
drums
flute
harmonica
guitar pro
video
Ultimate-Tabs

Jesus Died For You Not Me

Intro

G|--------------------------------|
D|--------------------------------|
A|7-7-7---------------------------|
E|------5-7-7-7-7-4-4-4-4-4-4-4-4-|

Verse 

G|--------------------------------|
D|--------------------------------|
A|7-7-7---------------------------|
E|------5-7-7-7-7-4-4-4-4-4-4-4-4-|


Chorus

G|--------------------------------|
D|--------------------------------|
A|--------------------------------|
E|5-5-5-5-7-7-7-7-5-5-5-5-7-7-7-7-|
less
plus
Add to Songbook Print Version How to play lesson Submit videolesson
Click the best TAGS for this song:
None of them
Contributor: Anonymous Correct

If you can not find the chords or tabs you want, look at our partner E-chords. If you are a premium member, you have total access to our video lessons.

If you find a wrong Bad To Me from Dumb Fucks, click the correct button above.

login/signup
my songbooks
my recent views
my submits