tools Ultimate Tabs

Start AutoScroll Font Size Down Font Size Up

Find us on Facebook

chords
tabs
bass
ukulele
keyboards
drums
flute
harmonica
guitar pro
video
Ultimate-Tabs

Bad Dream Mama

Eagles Of Death Metal - Bad Dream Momma
This is 100% correct, and awesome!

D  ---------------------------------------------
B  ---------------------------------------------   
G  --------------------------------------------- 
D  --7--7-9-10-9-7--33-5-3-6-5-3--7--7-9-10-9-7-    
G  --7--7-7-7--7-7--33-3-3-3-3-3--7--7-7-7--7-7-
G  --7--7-7-7--7-7--33-3-3-3-3-3--7--7-7-7--7-7-  

D  ----------------------------------------------------
B  ----------------------------------------------------
G  -----6^^-^-^-3--------------------------------------
D  --33-3-3-3-3-3--7--7-9-10-9-7--00-2-0-3-2-0--33-5-6-
G  --33-3-3-3-3-3--7--7-7-7--7-7--00-0-0-0-0-0--33-3-3-
G  --33-3-3-3-3-3--7--7-7-7--7-7--00-0-0-0-0-0--33-3-3-

D  -------------------
B  -------------------
G  -------------------
D  --5-7-8--7-710^^-7-
G  --5-5-5--7-77--7-7-
G  --5-5-5--7-77--7-7-
less
plus
Add to Songbook Print Version How to play lesson Submit videolesson
Click the best TAGS for this song:
None of them
Contributor: sefeSamm Correct

If you can not find the chords or tabs you want, look at our partner E-chords. If you are a premium member, you have total access to our video lessons.

If you find a wrong Bad To Me from Eagles Of Death Metal, click the correct button above.

login/signup
my songbooks
my recent views
my submits