Eagles

Hotel California (Acústico) tab

Eagles

tools Ultimate Tabs

Start AutoScroll Font Size Down Font Size Up

Find us on Facebook

chords
tabs
bass
ukulele
keyboards
drums
flute
harmonica
guitar pro
video
Ultimate-Tabs

Hotel California (Acústico)

  
by Victor Vieira Ferraz  
  
 Bm                        F#  
 On a dark desert highway, cool wind in my hair  
 A                     E  
 Warm smell of colitas rising up through the air  
 G                         D  
 Up ahead in the distance, I saw a shimmering light  
 Em  
 My head grew heavy and my sight grew dim  
 F#  
 I had to stop for the night  
  
 Bm                               F#  
 There she stood in the doorway;  I heard the mission bell  
 A                                          E  
 And I was thinking to myself this could be heaven or this could be hell  
 G                        D  
 Then she lit up a candle, and she showed me the way  
 Em                                   F#  
 There were voices down the corridor, I thought I heard them say  
  
   
   
   
 G                        D  
 Welcome to the Hotel California.  
        Em                   Bm7  
 Such a lovely place, such a lovely face  
 G                               D  
 Plenty of room at the Hotel California  
 Em                                      F#  
 Any time of year (any time of year) you can find it here     
   

INTRO VIOLO 1 (CAPO 7ª CASA) 


  Bm                          F#7              
                         m                     
   P  P I P m i m a   i  i   P i m P  a i m P  
e|-0--------------0--------|----------2------- 
B|-0--------0------------0-|-----0--------0--- 
G|-0----0-------0-----0--2-|---2--------2----- 
D|-2--2---2---2------------|-1--------------1- 
A|-2-----------------------|-------2---------- 
E|-0-----------------------|------------------ 


      A9                              E9 

   P i m  i  a m  P i m  P i m   P  a m a m i  P  a 
e|-----------7-----------------|----7---7---------7-| 
B|-----10-10---10-----10-----7-|----------7---------| 
G|---9--------------9------9---|------7-----7-------| 
D|-7--------------7------------|---------------12---| 
A|-----------------------7-----|-11-----------------| 
E|-----------------------------|--------------------| 



   G                             D                              
   
   P  i m i a i m a p  m  P  i   P a  m i a P m P a  m P  P m   
e|----------------0------------|---3------3-------3-----------| 
B|----------1----------1-------|------0-------0------0------0-| 
G|------0-------0------------0-|--------0---------------------| 
D|----2---2---2----------0p2---|-0----------0-------------0---| 
A|-3----------------3----------|----------------9-------------| 
E|-----------------------------|-----------------------3------| 


  Em7                           F#7 
   P a i P m P m a  P P P P  m   P i m i a i m a     
e|---0-----------0-------------|---------------2-| 
B|---------1---1-------------0-|---------0-------| 
G|-----0-----------------------|-----2-2-----2---| 
D|-------2---2------2-4----2---|---1-------1-----| 
A|-0---------------------------|-2---------------| 
E|-----------------------0-----|-----------------| 



   Bm                          F#7                A9                           E9   
                           m 
   P  m i a  m i m a P m i i   P i m P  a i m P   P i m  i  a m  P i m  P i m  P  a m P  m i a 
e|-7------10-------7---------|----------9-------|-----------7----------------|----7----------7--| 
B|-7--7------7---7-----7---7-|-----7--------7---|-----10-10---10-----7-----7-|-----------7------| 
G|-7----7------7---------7-9-|---9--------9-----|---9--------------9-----9---|------7------7----| 
D|-9-----------------9-------|-8--------------8-|-7--------------7-----------|--------9---------| 
A|-9-------------------------|-------9----------|----------------------7-----|-11---------------| 
E|-7-------------------------|------------------|----------------------------|------------------| 



                    
G                             D                             Em7                           F#7 
   
   P  i m a m P i a P  m  P  i   P a  m i a P m P a  m P  P m   P a i P m P m a  P P P P  m   P i m i P i m a                                                   
e|--------7-------7------------|---10-----10------10----------|---7-----------7-------------|---------------9--| 
B|----------8----------8-------|------7-------7------7------7-|---------8---8-------------7-|------------------| 
G|------7-------7------------7-|--------7---------------------|-----7-----------------------|-----9-9-----9----| 
D|----9-------9----------7p9---|-7----------7-------------7---|-------9---9------9-11---9---|---8-------8------| 
A|-10---------------10---------|---------------9--------------|-7---------------------------|-9-------9--------| 
E|-----------------------------|-----------------------10-----|-----------------------7-----|------------------| 


INTRO VIOLO 2 



  Bm          F#          A9          E9 

    P   P P     P   P P     P   P P    P  P  i P P i m a 
e|-----------|-----------|-----------|-----------------0--| 
B|-----------|-----------|-----------|---------------0----| 
G|-----------|-----------|-----------|-------0-----1------| 
D|--0---2-4--|--2---0----|------0-2--|---0p4-----0--------| 
A|-----------|--------4--|--4--------|-2-------2----------| 
E|-----------|-----------|-----------|--------------------| 



  G           D       m  m   Em7                             F#7 
                      i  i 
    P   P P     P  P  P  P    P i m a m i m P i m a P i m a   P i m i P i m a 
e|-----------|--------------|-------0-------------0-------0-|---------------2--| 
B|-----------|--------3-----|-----0---0---0-----0-----0-0---|-----0-------0----| 
G|-----------|--------2--2--|---0-------0-----2-----0-------|---3---3---3------| 
D|--------0--|--------4--4--|---------------4---------------|-4-------4--------| 
A|--2---4----|--0--------5--|-------------------------------|------------------| 
E|-----------|-----2--------|-0-----------------------------|------------------| 




GUITARRA PICOTADA 


   Bm          F#         A9         E9         G          D          Em7        F# 

e|----------|----------|----------|----------|----------|----------|----------|---------| 
B|----------|----------|----------|----------|----------|----------|----------|---------| 
G|--------4-|----------|----------|----------|----------|--------7-|----------|---------| 
D|------4---|--------4-|--------7-|--------2-|--------5-|------7---|--------2-|-------4-| 
A|--2-2-----|------4---|------7---|------2---|------5---|--5-5-----|------2---|-----4---| 
E|----------|--2-2-----|--5-5-----|--0-0-----|--3-3-----|----------|--0-0-----|-2-2-----| 



GUITARRA 1 VERSO 1 


e|-----------------------------------------| 
B|-----------------------------------------| 
G|--7---6---6---4---4---2---2-------3b4r3--| 
D|-----------------------------4--5--------| 
A|-----------------------------------------| 
E|-----------------------------------------| 



GUITARRA 2 VERSO 1 



e|-----------------------------------------| 
B|-----------------------------------------| 
G|----------------------------------4b5r4--| 
D|--9---8---7---6---5---4---4--------------| 
A|-----------------------------5--7--------| 
E|-----------------------------------------| 



GUITARRA 1  1º REFRO 



e|-----------------| 
B|-----------------| 
G|-----------------| 
D|-----------------| 
A|-----1--2--4--5--| 
E|--2--------------| 




e|-------------------------------------| 
B|--10--10---12---10---12\14---12--10--| 
G|--11--11---12---11---12\14---12--11--| 
D|-------------------------------------| 
A|-------------------------------------| 
E|-------------------------------------| 




e|---------------------| 
B|---------------------| 
G|---------------------| 
D|-------------2--4--5-| 
A|--2---4---5----------| 
E|---------------------| 




e|--------------------------------------| 
B|--15------15-----14/--------12-12-----| 
G|--14p16---14p16--15/--------12-12/11--| 
D|-------------------------12-----------| 
A|----------------------12--------------| 
E|--------------------------------------| 



GUITARRA 1 VERSO 2 



e|---------------------------------------------------------------| 
B|-----5-5b6r5------------5-5b6r5--------------------------------| 
G|--7----------6---6---4----------4--2-2--------3b4r3---3--4--6--| 
D|---------------------------------------4---5-------------------| 
A|---------------------------------------------------------------| 
E|---------------------------------------------------------------| 



e|--------14p13-14--------14p13-14--------12p11-12--------12p11-12--| 
B|-----15--------------14--------------14--------------12-----------| 
G|--7---------------6---------------6---------------4---------------| 
D|------------------------------------------------------------------| 
A|------------------------------------------------------------------| 
E|------------------------------------------------------------------| 



e|--------10p9-10-------10p9-10-------7p6-7---------------------| 
B|-----12------------10-------------8---------14b16r14p12--14~--| 
G|--4--------------2--------------------------------------------| 
D|-------------------------------5------------------------------| 
A|--------------------------------------------------------------| 
E|--------------------------------------------------------------| 



GUITARRA 2 VERSO 2 



e|-----------------------------------------------------------------| 
B|-----------------------------------------------------------------| 
G|-----6-6b7r6------------6-6b7r6----------------------------------| 
D|--9-----------8---7---6----------5--4--4--------4b5r4---4--5--7--| 
A|------------------------------------------5--7-------------------| 
E|-----------------------------------------------------------------| 




e|------------------------------------------------------------------| 
B|--------15p14-15--------14p13-14--------14p13-14--------12p11-12--| 
G|-----16--------------15--------------14--------------13-----------| 
D|--9---------------8---------------7---------------6---------------| 
A|------------------------------------------------------------------| 
E|------------------------------------------------------------------| 




e|---------------------------------------------------------------| 
B|--------12p11-12--------10p9-10--------8p7-8---11b12r11p9--11--| 
G|-----12--------------11-------------9--------------------------| 
D|--5---------------4--------------------------------------------| 
A|---------------------------------7-----------------------------| 
E|---------------------------------------------------------------| 



GUITARRA 1  2º REFRO 



e|------10-10----------------------9b10--9--| 
B|----x------------------------10-----------| 
G|--x----------9b11r9--7--9b11--------------| 
D|------------------------------------------| 
A|------------------------------------------| 
E|------------------------------------------| 



e|---------22-22------------------------| 
B|--22b24---------24r22--19-------------| 
G|---------------------------21b23--21--| 
D|--------------------------------------| 
A|--------------------------------------| 
E|--------------------------------------| 




GUITARRA 1 VERSO 3 



e|--------14p13-14----------------14p13-14-------12p11-12--------12p11-12--| 
B|-----15-----------5-5b6r5----14-------------14--------------12-----------| 
G|--7-----------------------6--------------6---------------4---------------| 
D|-------------------------------------------------------------------------| 
A|-------------------------------------------------------------------------| 
E|-------------------------------------------------------------------------| 




e|--------10p9-10--------10p9-10-------7p6-7--------------------| 
B|-----12-------------10-------------8--------14b16r14p12--14~--| 
G|--4--------------2--------------------------------------------| 
D|--------------------------------5-----------------------------| 
A|--------------------------------------------------------------| 
E|--------------------------------------------------------------| 



GUITARRA 2  VERSO 3 



e|---------------------------------------------------------------------------| 
B|--------15p14-15-----------------14p13-14--------14p13-14--------12p11-12--| 
G|-----16-----------6-6b7r6-----15--------------14--------------13-----------| 
D|--9------------------------8---------------7--------------6----------------| 
A|---------------------------------------------------------------------------| 
E|---------------------------------------------------------------------------| 




e|---------------------------------------------------------------| 
B|--------12p11-12--------10p9-10--------8p7-8---11b12r11p9--11--| 
G|-----12--------------11-------------9--------------------------| 
D|--5---------------4--------------------------------------------| 
A|---------------------------------7-----------------------------| 
E|---------------------------------------------------------------| 



SOLO 


   guit. 1 

e|---------------------------------------------------------------------------------------| 
B|--------10-12b115--10p12--------7------0p3h0------------7----------------7-------------| 
G|--3/11-------------------9--7p9---7-----------2b4---7p9---7----------7p9---7-----------| 
D|------------------------------------8-----------------------10p9-10----------10p9--10--| 
A|---------------------------------------------------------------------------------------| 
E|---------------------------------------------------------------------------------------| 




e|----------10---------------7---10b12--10--12r10--7------10------------10---------------| 
B|-----10b12--r10--7-10-8b9----7---------------------10b12--r10--8-----------------------| 
G|------------------------------------------------------------------9b11--11r9-7---7/6-7-| 
D|--7----------------------------------------------------------------------------9-------| 
A|---------------------------------------------------------------------------------------| 
E|---------------------------------------------------------------------------------------| 




e|--------------------------------------------------------------7-----------------| 
B|------7b8--7b8r7--------7b8--7b8--7b8r7-----------7-10------7-7-----------------| 
G|--7p9------------9p7-9------------------9-7--9b11------9b11-----9b11r9p7--9b11--| 
D|--------------------------------------------------------------------------------| 
A|--------------------------------------------------------------------------------| 
E|--------------------------------------------------------------------------------| 


   guit. 2 



e|-----------------7-7------7-7------7-7----------------------------------------------| 
B|-------7-10------7-7------7-7------7-7----------------------------------------------| 
G|--9b11------9b11-----9b11-----9b11-----9b11r9p7--9-7-9b11/--11b14r11--9-11-7b-------| 
D|------------------------------------------------------------------------------9--7--| 
A|------------------------------------------------------------------------------------| 
E|------------------------------------------------------------------------------------| 





e|-------10-------------10----------------------------12----------17---------------------| 
B|--10b12--r10p7--10/12----12\11-10-9/--------12b--15----15--17b19--r17-15-17-15-17b19---| 
G|--------------------------------------14b16--------------------------------------------| 
D|---------------------------------------------------------------------------------------| 
A|---------------------------------------------------------------------------------------| 
E|---------------------------------------------------------------------------------------| 





e|--15-16-17-17b18----------------------------------17-17---------------------17-17--------| 
B|------------------17b19r17-15--17p15--17p15--17b19-----r17b19--r17p15--17b19-----r17b19--| 
G|-----------------------------------------------------------------------------------------| 
D|-----------------------------------------------------------------------------------------| 
A|-----------------------------------------------------------------------------------------| 
E|-----------------------------------------------------------------------------------------| 




e|--------------17b19--| 
B|--17b19r17-15--------| 
G|---------------------| 
D|---------------------| 
A|---------------------| 
E|---------------------| 



   guit. 1 



e|---------------------------10-------10-----------6--12b14-r12-r12-r12-r12-r12-r12-r12--| 
B|--14b15r14-12-14b15--12b14----12b14----------------------------------------------------| 
G|---------------------------------------11/9-7------------------------------------------| 
D|---------------------------------------------9-8---------------------------------------| 
A|---------------------------------------------------------------------------------------| 
E|---------------------------------------------------------------------------------------| 


e|--r12-r12-12p10--12p10-------------------------------7------------------------------| 
B|---------------12-----12--10---------------10----------7-10---7---------------------| 
G|-----------------------------11/9-7---9\11-----9b11---------9---7-9---7-------------| 
D|------------------------------------9-------------------------------9-----7---------| 
A|------------------------------------------------------------------------9---9/7--5--| 
E|------------------------------------------------------------------------------------| 


e|------------------------------------------6--6--7--9--| 
B|--------7---10p9--------------------7--8--------------| 
G|----------7------9b11r9--7--7--9--9-------------------| 
D|------7-----------------------------------------------| 
A|--7\9-------------------------------------------------| 
E|------------------------------------------------------| 




   guit. 2 




e|-------10----9----------------------------------------------------12p10---------------| 
B|--8\10----10------12----10----------------------------------12------------------------| 
G|---------------12----11-------12-------------------------------11-------12b14r12--11--| 
D|---------------------------12--------12-----------------12----------------------------| 
A|---------------------------------14------12/10-9--10\12-------------------------------| 
E|--------------------------------------------------------------------------------------| 




e|---------------------------------| 
B|-----------10-12-11--11--12--14--| 
G|--11-12-12-----------------------| 
D|---------------------------------| 
A|---------------------------------| 
E|---------------------------------| 


  guit. 1  (arpejos) 



e|--6-7-9--10p7---10p7---10p7---10p7---10p7----9p6---9p6---9p6\14--| 
B|--------------7------7------7------7------7------7-----7---------| 
G|-----------------------------------------------------------------| 
D|-----------------------------------------------------------------| 
A|-----------------------------------------------------------------| 
E|-----------------------------------------------------------------| 




e|--9p5---9p5---9p5---9p5---9p5---7p4---7p4---7p4\12--| 
B|------5-----5-----5-----5-----5-----5-----5---------| 
G|----------------------------------------------------| 
D|----------------------------------------------------| 
A|----------------------------------------------------| 
E|----------------------------------------------------| 




e|--7p3---7p3---7p3---7p3---7p3-----5p2---5p2---5p2\10--| 
B|------3-----3-----3-----3------3------3-----3---------| 
G|------------------------------------------------------| 
D|------------------------------------------------------| 
A|------------------------------------------------------| 
E|------------------------------------------------------| 




e|--3-----3-----3-----3-----3------6p2---6p2---6p2-6\9--|              
B|----5-----5-----5-----5-----5--------2-----2----------| 
G|------4-----4-----4-----4-----4-----------------------|               
D|------------------------------------------------------|               
A|------------------------------------------------------|               
E|------------------------------------------------------|              



e|--6-7-9--10p7---10p7---10p7---10p7---10p7----9p6---9p6---9p6\14--| 
B|--------------7------7------7------7------7------7-----7---------| 
G|-----------------------------------------------------------------| 
D|-----------------------------------------------------------------| 
A|-----------------------------------------------------------------| 
E|-----------------------------------------------------------------| 




e|--9p5---9p5---9p5---9p5---9p5---7p4---7p4---7p4\12--| 
B|------5-----5-----5-----5-----5-----5-----5---------| 
G|----------------------------------------------------| 
D|----------------------------------------------------| 
A|----------------------------------------------------| 
E|----------------------------------------------------| 




e|--7p3---7p3---7p3---7p3---7p3-----5p2---5p2---5p2\10--| 
B|------3-----3-----3-----3------3------3-----3---------| 
G|------------------------------------------------------| 
D|------------------------------------------------------| 
A|------------------------------------------------------| 
E|------------------------------------------------------| 




e|--3-----3-----3-----3-----3------6p2---6p2---6p2---6p2---6p2---------------|              
B|----5-----5-----5-----5-----5--------2-----2----2------2------2------------| 
G|------4-----4-----4-----4-----4----------------------------------4-4-4--4--|               
D|-----------------------------------------------------------------4-4-4--4--|               
A|-----------------------------------------------------------------2-2-2--2--|               
E|---------------------------------------------------------------------------|    


           

  guit. 2  (arpejos) 




e|--------------------14p10-----14p10-----14p10-----14p10-----14p10------| 
B|--12-11--11-12--14--------12---------12--------12--------12--------12--| 
G|-----------------------------------------------------------------------| 
D|-----------------------------------------------------------------------| 
A|-----------------------------------------------------------------------| 
E|-----------------------------------------------------------------------| 




e|--12p9----12p9----12p9\18---10p9----10p9----10p9----10p9----10p9-----| 
B|-------11------11----------------10------10------10------10------10--| 
G|---------------------------------------------------------------------| 
D|---------------------------------------------------------------------| 
A|---------------------------------------------------------------------| 
E|---------------------------------------------------------------------| 



e|--10p7---10p7---10p7z16---10p7---10p7---10p7---10p7---10p7----| 
B|-------9------9----------------8------8------8------8------8--| 
G|--------------------------------------------------------------| 
D|--------------------------------------------------------------| 
A|--------------------------------------------------------------| 
E|--------------------------------------------------------------| 



e|--10p5---10p5---10p5\12---7p3---7p3---7p3---7p3---7p3--| 
B|-------7------7---------------5-----5-----5-----5------| 
G|-------------------------------------------------------| 
D|-------------------------------------------------------| 
A|-------------------------------------------------------| 
E|-------------------------------------------------------| 





e|--9p6---9p6---9p6-9\14--|              
B|------7-----7-----------| 
G|------------------------| 
D|------------------------| 
A|------------------------| 
E|------------------------| 



e|--------------------14p10-----14p10-----14p10-----14p10-----14p10------| 
B|--12-11--11-12--14--------12---------12--------12--------12--------12--| 
G|-----------------------------------------------------------------------| 
D|-----------------------------------------------------------------------| 
A|-----------------------------------------------------------------------| 
E|-----------------------------------------------------------------------| 




e|--12p9----12p9----12p9\18---10p9----10p9----10p9----10p9----10p9-----| 
B|-------11------11----------------10------10------10------10------10--| 
G|---------------------------------------------------------------------| 
D|---------------------------------------------------------------------| 
A|---------------------------------------------------------------------| 
E|---------------------------------------------------------------------| 



e|--10p7---10p7---10p7z16---10p7---10p7---10p7---10p7---10p7----| 
B|-------9------9----------------8------8------8------8------8--| 
G|--------------------------------------------------------------| 
D|--------------------------------------------------------------| 
A|--------------------------------------------------------------| 
E|--------------------------------------------------------------| 



e|--10p5---10p5---10p5\12---7p3---7p3---7p3---7p3---7p3--| 
B|-------7------7---------------5-----5-----5-----5------| 
G|-------------------------------------------------------| 
D|-------------------------------------------------------| 
A|-------------------------------------------------------| 
E|-------------------------------------------------------| 





e|--9p6---9p6---9p6---9p6---9p6-----------|              
B|------7-----7-----7-----7---------------| 
G|------------------------------2-2-2--4--| 
D|------------------------------2-2-2--4--| 
A|------------------------------2-2-2--4--| 
E|----------------------------------------| 




 
less
plus
Add to Songbook Print Version How to play lesson Submit videolesson
Click the best TAGS for this song:
None of them
Contributor: anthstev Correct

If you can not find the chords or tabs you want, look at our partner E-chords. If you are a premium member, you have total access to our video lessons.

If you find a wrong Bad To Me from Eagles, click the correct button above.

login/signup
my songbooks
my recent views
my submits