Eagles

Hotel California bass

Eagles

tools Ultimate Tabs

Start AutoScroll Font Size Down Font Size Up

Find us on Facebook

Ultimate-Tabs

Hotel California

No creen q ya era hora, por fin el bass de Hotel calentonia perdon California je je ps disfrutenlo 

Hotel California 
The Eagles 
Frey, Henley, Felder 
Bass: Randy Meisner. 
Modelo del bajo: Epiphone with-4 

Intro? 
G--------------------------------------- 
D--------------------------------------- 
A--------9--------7--------5------------ 
E---7--------5--------3--------0----2---X2 

On the dark? 

G---------------------------------11----11-------11--- 
D--------9------9--------------11-----11?11------11--- 
A------9-----9----9-X-0----9-9---------------9-------- 
E--7-7------------------------------------------------ 

G-------------------------------9?x----9-------- 
D-------7-----7-7-------------9------9---9------ 
A-----7-----7-----7-X-0---7-7---------------7--- 
E?5-5------------------------------------------- 

G-------------------------------------7?x----7------- 
D--------5---x---5-x----------------7------7----7---- 
A------5-------5-----5?x-0------5-5----------------5- 
E?3-3------------------------------------------------ 

                              
G----------------------------- 
D-------2---x---2-2----------- 
A-----2-------2----2---2-x---- 
E?0-0----------------------0-- X2 

G---------------------------- 
D---------4---x---4--------4- 
A-------4-------4----2-4-5--- 
E---2-2----------------------puente a coro? 

Welcome to the? 

G-------------------------4/7------x---7---7----------------- 
D--5-------x-----5---5h2-------7-----7---7---7/4-----x?4?4--- 
A----5---------5---5-------------5---------------4----4?4-4/- 
E------3-------------------------------------------2--------- 


G--------------------------------4/7-----x---7---7---- 
D--------2-4-5------x---5----5h2-----7-----7---7---7/- 
A-2?4?5--------5------5----5-----------5-------------- 
E----------------3------------------------------------ 


G------------------------------------------------ 
D?2--------x---2-x---2----------4?x----4--------- 
A----2-------2-----2---2------4------4----4------ 
E------0-------------------2----------------2---- 

Her mind is? 

G---------------------------------11----11-------11--- 
D--------9------9--------------11-----11?11------11--- 
A------9-----9----9-X-0----9-9---------------9-------- 
E--7-7------------------------------------------------ 

G-------------------------------9?x----9-------- 
D-------7-----7-7-------------9------9---9------ 
A-----7-----7-----7-X-0---7-7---------------7--- 
E?5-5------------------------------------------- 

G-------------------------------------7?x----7------- 
D--------5---x---5-x----------------7------7----7---- 
A------5-------5-----5?x-0------5-5----------------5- 
E?3-3------------------------------------------------ 
                              
G----------------------------- 
D-------2---x---2-2----------- 
A-----2-------2----2---2-x---- 
E?0-0----------------------0--X2 

G---------------------------- 
D---------4---x---4--------4- 
A-------4-------4----2-4-5--- 
E---2-2----------------------puente a coro? 

Welcome to the? 

G-------------------------4/7------x---7---7----------------- 
D--5-------x-----5---5h2-------7-----7---7---7/4-----x?4?4--- 
A----5---------5---5-------------5---------------4----4?4-4/- 
E------3-------------------------------------------2--------- 



G--------------------------------4/7-----x---7---7---- 
D--------2-4-5------x---5----5h2-----7-----7---7---7/- 
A-2?4?5--------5------5----5-----------5-------------- 
E----------------3------------------------------------ 


G---------------------------- 
D?2--------x---2-x---2------- 
A----2-------2-----2---2----- 
E------0--------------------- 



Mirrows on the? 

G------------------------------- 
D------------------------------- 
A---9------9-----7-----5-----2-- 
E-------7-----5-----3-----0----- 

Last thing? 

G---------------------------------11----11-------11--- 
D--------9------9--------------11-----11?11------11--- 
A------9-----9----9-X-0----9-9---------------9-------- 
E--7-7------------------------------------------------ 

G-------------------------------9?x----9-------- 
D-------7-----7-7-------------9------9---9------ 
A-----7-----7-----7-X-0---7-7---------------7--- 
E?5-5------------------------------------------- 

G-------------------------------------7?x----7------- 
D--------5---x---5-x----------------7------7----7---- 
A------5-------5-----5?x-0------5-5----------------5- 
E?3-3------------------------------------------------ 
                             I_________________________I 
G-----------------------------I----------------------- 
D-------2---x---2-2-----------I-------4---x---4---4--- 
A-----2-------2----2---2-x-0--I-----4-------4---4----- 
E?0-0-------------------------I-2-2------------------- X3 

G----------------------------------11-----11---11/7-- 
D---9-9-9--------9?x------------11------11?11-------- 
A-----------9--9-------0---9-9----------------------- 
E---------7------------------------------------------ 

G-------------------------------9---9-----9-7/-- 
D-------7---------7-----------9-------9--------- 
A-----7----7--------5-6---7-7-----------7------- 
E?5-5---------5--------------------------------- 

G-------------------------------------7?x----7---------- 
D--------5---x---5-x----------------7------7----7------- 
A------5-------5-----5?x-0------5-5----------------5---- 
E?3-3------------------------------------------------7/- 

G----------------------------------------------------- 
D-------2---x---2-2------------------4---x---4---4/--- 
A-----2-------2----2---2-x-0-------4-------4---4------ 
E?0-0--------------------------2-2-------------------- 

G------------------------------------- 
D---9-9-9-9-9-9-9-9-9-9-9-9---9---9--- 
A------------------------------------- 
E------------------------------------- 

G------------------------------------- 
D------------------------------------- 
A---9-9-9-9-9-9-9-9-9-9-9-9---9---9--- 
E------------------------------------- 

G------------------------------------- 
D---7-7-7-7-7-7-7-7-7-7-7-7---7---7--- 
A------------------------------------- 
E------------------------------------- 

G------------------------------------- 
D------------------------------------- 
A---7-7-7-7-7-7-7-7-7-7-7-7---7---7--- 
E------------------------------------- 

G------------------------------------- 
D---5-5-5-5-5-5-5-5-5-5-5-5---5---5--- 
A------------------------------------- 
E------------------------------------- 

G------------------------------------- 
D------------------------------------- 
A---5-5-5-5-5-5-5-5-5-5-5-5---5---5--- 
E------------------------------------- 



G------------------------------------- 
D------------------------------------- 
A---7-7-7-7-7-7-7-7-7-7-7-7---7---7--- 
E------------------------------------- 

G------------------------------------- 
D------------------------------------- 
A---9-9-9-9-9-9-9-9-9-9-9-9---9---9--- 
E------------------------------------- 

G---------------------------------11----11-------11--- 
D--------9------9--------------11-----11?11------11--- 
A------9-----9----9-X-0----9-9---------------9-------- 
E--7-7------------------------------------------------ 

G-------------------------------9?x----9-------- 
D-------7-----7-7-------------9------9---9------ 
A-----7-----7-----7-X-0---7-7---------------7--- 
E?5-5------------------------------------------- 

G-------------------------------------7?x----7------- 
D--------5---x---5-x----------------7------7----7---- 
A------5-------5-----5?x-0------5-5----------------5- 
E?3-3------------------------------------------------ 
                              
G---------------------------------------------------- 
D-------2---x---2-2------------------4---x---4---4--- 
A-----2-------2----2---2-x-0-------4-------4---4----- 
E?0-0--------------------------2-2------------------- 
less
plus
Add to Songbook Print Version How to play lesson Submit videolesson
Click the best TAGS for this song:
None of them
Contributor: Jen_Jim- Correct

If you can not find the chords or tabs you want, look at our partner E-chords. If you are a premium member, you have total access to our video lessons.

If you find a wrong Bad To Me from Eagles, click the correct button above.

login/signup
my songbooks
my recent views
my submits