Eagles

Life in the fast lane/intro tab

Eagles

tools Ultimate Tabs

Start AutoScroll Font Size Down Font Size Up

Find us on Facebook

chords
tabs
bass
ukulele
keyboards
drums
flute
harmonica
guitar pro
video
Ultimate-Tabs

Life in the fast lane/intro

 
 
Tuning: Standard EADGBE 
h=hammer on, p=pull off, \=slide down, and b^=bend up 
 
guitar 1 
e|---------------------------------------------------------------------------| 
B|---------------------------------------------------------------------------| 
G|---------------------------------------------------------------------------| 
D|------7---5---------------------7---5--------------------------------------| 
A|--5h7---7---7p5-------------5h7---7---7p5----------------------------------| 
E|-----------------7\5--3--0-----------------7\5--3b^------------------------| 
 
guitar 2 that comes in while guitar 1 continues 
e|---------------------------------------------------------------------------| 
B|---------------------------------------------------------------------------| 
G|--------14----12----------------------------14----12-----------------------| 
D|--12h14----14----14p12----------------12h14----14----14p12-----------------| 
A|-----------------------14\12--10---------------------------14\12--10b^-----| 
E|----------------------------------12---------------------------------------| 
 
less
plus
Add to Songbook Print Version How to play lesson Submit videolesson
Click the best TAGS for this song:
None of them
Contributor: badfOphe Correct

If you can not find the chords or tabs you want, look at our partner E-chords. If you are a premium member, you have total access to our video lessons.

If you find a wrong Bad To Me from Eagles, click the correct button above.

login/signup
my songbooks
my recent views
my submits