Eagles

One of this nights album tab

Eagles

tools Ultimate Tabs

Start AutoScroll Font Size Down Font Size Up

Find us on Facebook

chords
tabs
bass
ukulele
keyboards
drums
flute
harmonica
guitar pro
video
Ultimate-Tabs

One of this nights album

1)    One of these nights 
2)    Too many hands 
3)    Hollywood waltz 
4)    Journey of the sorcerer 
5)    Lyin' eyes 
6)    Take it to the limit 
7)    Visions 
8)    After the thrill is gone 
9)    I wish you peace 
 
 
One of these Nights 
 
Em D6 | Cj7 | Am | Em Bm7 B7 | 
 
             Em      D6           Cmaj7 
One of these nights, one of these crazy old nights 
Am                                            Em      Bm7   B7 
we're gonna find out, pretty mama, what turns on your lights 
    Em                        D6 
The full moon is calling, the fever is high 
        Cmaj7 
and the wicked wind whispers and moans, 
Am 
you got your demons, you got your desires, 
      Em      Bm7       B7 
well, I got a few of my own. 
 
Cmaj7                     Gmaj7 
Oh, someone to be kind to in between the darkness and light. 
Cmaj7                              Am 
Oh, coming right behind you, well, I'm gonna find you 
B7 
One of these Nights. 
 
             Em      D6           Cmaj7 
One of these dreams, one of these lost and lonely dreams 
Am                                 Em     Bm7  B7 
we are gonna find a girl, one that really screams 
          Em                                D6 
I've been searchin' for the daughter of the devil himself 
          Cmaj7 
I've been searchin' for an angel in white. 
          Am 
I've been waitin' for a woman who's a little of both 
          Em                 Bm7        B7 
and I can feel her but she's nowhere in sight. 
 
Cmaj7                        Gmaj7 
Oh, loneliness will bind you in between the wrong and the right 
Cmaj7                        Am 
Oh, coming right behind you, swear I'm gonna find you 
B7 
One of these Nights... 
 
---------------------------------------------------------------------------- 
 
Too many hands 
 
 
ACOUSTIC GUITAR in D5 tuning: (low to high) DADAAD 
 
CHORDS in D5 tuning (these are really tough, guys) 
 
	D5   000000 
	G5   555555 
	F5   333333 
	E5   222222 
 
INTRO 
Two spaces equals one 16th note 
Play 4 times 
Rhythm Figure 1 (=RF1) 
 
    +       +       +       +          +       +       +       + 
e:--0---0-0-----0-0---------0-------|--0---0-0---------------------0-0-| 
B:--0---0-0-----0-0---------0-------|--0---0-0---------------------0-0-| 
G:--0---0-0-----0-0---------0-------|--0---0-0---------------------0-0-| 
D:-/5---3-3-----0-0-----3p0-0---3p0-|-/5---3-3-----0-3p0-----------0-0-| 
A:----------------------------------|------------3-------3-------------| 
E:----------------------------------|----------------------3---0-------| 
 
      D5 
She's one of a kind 
D5 
Sometimes hard to find 
       RF1 
Like a rainbow 
	    D5 
Well, she's lost all her glory 
    D5 
And could tell you some stories 
        RF1 
That we all should know 
 
 
	    G5	     F5 
And there's too many hands 
      D5 
Being laid on her 
G5	 F5		 D5 
Too many eyes will never see 
	  G5 
That it's dragging her down 
	F5	     E5 
But you won't hear a sound as 
	   RF1 
She turns 'round 
 
continue simile 
 
Her beauty all aflight 
It always seems to turn the tide 
At midnight 
 
And for her there is no rest 
We are doing what is best 
For our future 
 
One of these days she may not 
Be so good to you 
One of these days she might 
Chain you to the ground 
But her fire is still burning 
	F5	       E5	      D5 
And her heart is still yearning to be found 
 
Rhythm Figure 1 6 times over solo 
 
Too many hands 
Being laid on her 
Too many eyes will never see 
That it's dragging her down 
But you won't hear a sound as 
She turns round 
 
Rhythm Figure 2 until end 
 
   + .   . +       +       +          + .   . +       +       + 
e:-0-0---0---0-0-0---0-0---------0--|-0-0---0---0-0-0---0-0---2h3p2-0--| 
B:-0-0---0---0-0-0---0-0---------0--|-0-0---0---0-0-0---0-0---------0--| 
G:-3-5---5---0-3-5---5-5---2h3p2-0--|-3-5---5---0-3-5---5-5---------0--| 
D:---------------0---0-0---------0--|---------------0---0-0---------0--| 
A:----------------------------------|----------------------------------| 
E:----------------------------------|----------------------------------| 
 
 
   + .   . +       +       +          + .   . +       +       + 
e:-0-0---0---0-0-0---0-0---------0--|-0-0---0---0-0-0-0---------------| 
B:-0-0---0---0-0-0---0-0---------0--|-0-0---0---0-0-0-0-------0-------| 
G:-3-5---5---0-3-5---5-5---2p3h2-0--|-3-5---5---0-3-5-5-------0---3---| 
D:---------------0---0-0---------0--|---------------0-0---0-----------| 
A:----------------------------------|---------------------------------| 
E:----------------------------------|---------------------------------| 
 
---------------------------------------------------------------------------- 
 
Hollywood waltz 
 
Intro:  E	A	B 
	A	E/G#	B 
 
E     G#m	A	    E 
Springtime, the acacias are blooming. 
E	     A		 F#m		B	B  C#m  B/D# 
Southern California will see one more day. 
E    G#m      A		  E 
Dreamland and bus'ness is booming. 
    E		A	   F#m      B		B  C#m  B/D# 
The birds are a singing as I drift away. 
 
She looks another year older 
from too many lovers who used her and ran. 
But some nights, oh, she looks like an angel 
and she's always willing to hold you again. 
 
Chorus: 
	   A		 B	    E		A 
	So give her this dance, she can't be forsaken. 
	E	     A		   F#m	      B		B  C#m  B/D# 
	Learn how to love her with all of her faults. 
	E   G#m  A		 C#m 
	She gave more than she's taken 
	    E		 A	   B	     A		E/G#	F#m7	B  C#m  B/D# 
	and I'll go down doing the Hollywood Waltz. 
 
 
Springtime and the lady is grieving, 
the lovers just stand there with nothing to say. 
They got what they wanted, they're packing and leaving 
to look for another to love the same way. 
 
	So give her this dance, she can't be forsaken. 
	Learn how to love her with all of her faults. 
	She gave more than she's taken 
	    E		 A	   B	     A		E/G#	F#m7 
	and I'll go down doing the Hollywood Waltz, 
	    B  C#m  B/D#  A	E/G#	F#m7 
	the Holly - wood  Waltz, 
	    B  C#m  B/D#  A	E/G#	F#m7 
	the Holly - wood  Waltz, 
	    B  C#m  B/D#  A	E/G#	F#m7 
	the Holly - wood  Waltz, 
	    B  C#m  B/D#  A	E/G#	F#m7	B  C#m  B/D# 
	the Holly - wood  Waltz. 
 
	A	E/G#	F#m7	B  C#m  B/D# 
 
	E	A   E/G#   F#m	   E 
 
 
CHORDS: 
 
E/G#	4024xx		B/D#	669876 
F#m	244222		G#m	466444 
F#m7	242222		C#m	446654 
 
---------------------------------------------------------------------------- 
 
Journey of the sorcerer 
 
E---------------------------------------------| 
B---6-4-3-1----6-4-3-1----6-4-3-1-----6-4-8-6-| 
G-5----------3----------2----------1----------| 
D---------------------------------------------| 
A---------------------------------------------| 
E---------------------------------------------| 
 
The HitchHiker's Guide movie-version has a variation on the 6-4-3-1 bit which goes like this-- 
 
E----------------| 
B---6-4--1H3-4P1-| 
G-5--------------| 
D----------------| 
A----------------| 
E----------------| 
 
And then a variation on the 5-3-2-1 which goes like this -- 
 
E--------------------| 
B-----4----6-4-3-1---| 
G-3H5--3H5-----------| 
D--------------------| 
A--------------------| 
E--------------------| 
 
The strumming bit is muted in parts but is basically Am, Am7, D7, F6, played with the 
on the 3rd fret (Cm, Cm7, etc...) 
 
---------------------------------------------------------------------------- 
 
Lyin' eyes 
 
G               Gmaj7            C 
City girls just seem to find out early 
Am                            D 
How to open doors with just a smile 
  G                 Gmaj7             C 
A rich old man, and she wont' have to worry; 
       Am              C              G 
She'll dress up all in lace and go in style 
 
Chorus 
------ 
          G  C            G 
You can't hide your lyin' eyes 
         Em  Bm             Am   D 
And your smile is a thin disguise 
             G G7          C   A 
I thought by now you'd realize 
      Am              D               G 
There ain't no way to hide your lyin' eyes 
 
 
Additional Lyrics 
----------------- 
 
Late at night a big old house gets lonely 
I guess every form of refuge has its price. 
And it breaks her heart to think her love is only 
Given to a man with hands as cold as ice. 
 
So she tells him she must go out for the evening 
To comfort an old friend who's feelin' down 
But the knows where she's goin' as she's leavin' 
She is headed for the cheatin' side of town 
 
Chorus 
 
She gets up and pours herself a strong one 
And stares out at the stars up in the sky 
Another night, it's gonna be a long one 
She draws the shade and hangs her head to cry 
 
My, oh my, you sure know how to arrange things 
You set it up so well, so carefully 
Ain't it funny how your new life didn't change things 
You're still the same old girl you used to be 
 
Chorus 
 
---------------------------------------------------------------------------- 
 
Take it to the limit 
 
Intro:   C  F  C  G  F 
 
C                            F 
All alone at the end of the evening 
          C                          F 
And the bright lights have faded to blue 
        C               E7                   Am 
I was thinkin' 'bout a woman who might have loved me 
             G    C 
And I never knew 
               D              C                    F 
You know I've always been a dreamer Spent my life running round 
                      C                   F 
And it's so hard to change Can't seem to settle down 
                          Dm     F 
But the dreams I've seen lately 
                     FaddG          G               F     G 
Keep turnin' out and burnin' out & turnin' out the same 
 
Chorus 
    F           C         F         C 
So put me on a highway & show me a sign 
     F              G              C    G   F 
And take it to the limit one more time 
 
 
          C                         F 
You can spend all your time making money 
          C                         F 
You can spend all your love making time 
      C            E7        Am                       G 
If it all fell to pieces tomorrow would you still be mine 
                  D                C             F 
And when you're looking for your freedom nobody seems to care 
                        C                  F 
And you can't find the door, can't find it anywhere 
                           Dm       F 
When there's nothin' to believe in 
                                 FaddG                  G                F 
Still you're commin' back, you're runnin' back, you're commin' back for more 
 
Chorus 
    F            C         F        C 
So put me on a highway & show me a sign 
     F              G              Am       G 
And take it to the limit one more time 
 
 
Ending 
F                G      F              G 
Take it to the limit,  take it to the limit 
F               G              C 
Take it to the limit one more time 
         F              G          F               G 
You can take it to the limit, yes take it to the limit 
          C 
One more time. 
 
---------------------------------------------------------------------------- 
 
Visions 
 
intro chords: 
e    :|----5----3-----------------------| 
B    :|----5----3----7----5-------------| 
G    :|----6----4----7----5-------------|  2x 
D    :|----7----5----7----5-------------| 
A    :|----7----5----5----3-------------| 
E    :|----5----3----x----x-------------| 
	        A      G     D     C 
 
refrain riff: 
e    :|--------------------|------x--x--x--x--------------|------------------------| 
B    :|---------------4----|--9--9--x--x--x--x--9--9---|---------------------------| 
G    :|----7----5----4----|--9--9--x--x--x--x--9--9---|----------------------------| 
D    :|----7----5----4----|--9--9----------------9--9--|---4--4--6--6--4--4--6--6--| 
A    :|----7----5----2----|--7--7----------------7--7--|---2--2--2--2--2--2--2--2--| 
E    :|----5----3---------|------------------------------|-------------------------| 
	        A      G     B    | on 1st & 3rd repeat           |on 2nd repeat 
 
on 4th repeath follows either a solo or riff 1 
 
riff 1 : something on G string 2nd fret with lots of hammer ons and pull offs 
 
solo1: 
e    :|------------------------------------------------------------------------| 
B    :|--------------------------------------------------------------7---9b11--| 
G    :|-------------------7----5-----------------------------------------------| repeat with 
D    :|----7-h-5-p-7--------------7-------5--7--5------------------------------|variations 
A    :|--------------------------------------------------7---5-----------------| 
E    :|------------------------------------------------------------------------| 
 
 
solo 2: 
e    :|-----------------------------------------------------------------------------------------| 
B    :|---10b12r10------10---8------------------------------------------------------------------| 
G    :|------------------------------10---8---10-----8--------------8---10b12r-b-r-b-r-b-r-b-r--| 
D    :|----------------------------------------------------10---10------------------------------| 
A    :|-----------------------------------------------------------------------------------------| 
E    :|-----------------------------------------------------------------------------------------| 
 
e    :|----------------------------------------------------------------------------------------| 
B    :|----------------------------------------------------------------------------------------| 
G    :|-------12b15---12---10------------------------------------------------------------------| 
D    :|---8-----------------------12--10--10--10----------10-----------------------------------| 
A    :|----------------------------------------------12--12------10---8------------------------| 
E    :|----------------------------------------------------------------------10---8(let ring)--| 
 
at 3m10s   something like this which is repeated a few times 
 
e    :|------------------------------------------------------------------------------------------| 
B    :|---------10-----10---------------10--------8-------------8----------6------------6-----5--| 
G    :|---12-----------12b14-------12----12-----10b12----10--10------8b10------8-------7b9-------| 
 
 
song ends: 
 
e    :|-----------------------------------------------------------------------------------------| 
B    :|------10---------10------8---------8-------6--------8----------8------6-------6-------5--| 
G    :|------12b14-------------10b12------------8b10----10b12------------8b10-----------7b9-----| 
 
 
e    :|--------------------------------------| 
B    :|--------------------------------------| 
G    :|------------------------------5-------| 
D    :|-----------------4---6---7------------| 
A    :|----4---5---7-------------------------| 
E    :|--------------------------------------| 
 
---------------------------------------------------------------------------- 
 
After the thrill is gone 
 
VERSE 1: 
G  | C   | G   | C | Am | G   | Am  | G   D D/C | 
VERSE 2: 
G  | C   | G   | C | Am | G   | Am  | G         | Am | G G/F# | 
BRIDGE: 
Em | Bm7 | Am7 | G | Em | Bm7 | Cm6 | D7sus4    | 
VERSE 3: 
G  | C   | G   | C | Am | G   | Am  | G         | Am | G G/F# | 
BRIDGE: 
Em | Bm7 | Am7 | G | Em | Bm7 | Cm6 | D7s4 D7   | 
VERSE 4: 
G  | C   | G   | C | Am | G   | Am  | G         | Am | G      | 
CODA: 
Cm6  | G   | C  Cm6 | G . 
(sorry no lyrics) 
 
---------------------------------------------------------------------------- 
 
I wish you peace 
 
INTRO (Synthesizer written for Guitar): 
                                                                              I wish you... 
   A5      E         D       A/C#      Bm7     E7        A             D    Asus2   C#m7 
   +   +   +   +     +   +   +   +     +   +   +   +     +   +   +   +      +   +   +   + 
e:-12------12------|-10------9-------|-----------------|---------------14-|-12--------------| 
B:-10------12------|-10------10------|-10------9-------|-14------------15-|-10--------------| 
G:-9-------13------|-11------9-------|-7-------7-------|-14------------14-|-9---------------| 
D:---------14------|-12------11------|-9-------9-------|-14---------------|-11--------------| 
A:-0---------------|-----------------|-----------------|-0----------------|-----------------| 
E:---------0-------|-10------9-------|-7-------0-------|------------------|-----------------| 
 
 
Asus2	      C#m7    Bm		    Asus2 
   I wish you peace      when the cold winds blow 
B5 E5 B9/D#     B9		Bm7  F6  E6  Bb7sus2 
	 Warmed by the fire's glow 
Asus2		C#m7	     Bm		  Asus2   A9/C# 
   I wish you comfort in the...the lonely times 
D	    C#m7	    E		Asus2   E 
   Arms to hold you when you ache inside 
 
 
I wish you hope when things are going bad 
Kind words when times are sad 
I wish you shelter from the...the ragin' wind 
D		C#m7    E	   A 
   Coolin' waters at the fever's end 
 
  A7sus4   D	E		      A   A9 
I wish you   peace when times are hard 
D		  E		      Asus2   A7 
   A light to guide you through the dark 
	 D	       C#m7	   C#7		      F#m  F 
And when   storms are high and your...your dreams are low 
A		      E			Bm   D 
  I wish you the strength to let love grow     Ahhh 
A		      E			D   Dm   A 
  I wish you the strength to let love flow 
 
 
Fill 1 
 
   E9+5 
   +       + 
e:---------2-------| 
B:-------1---------| 
G:-----1-----------| 
D:---2-------------| 
A:-----------------| 
E:-0---------------| 
 
 
Guitar Solo 
 
(same chords as last verse) 
 
I wish you peace when times are hard 
A light to guide you through the dark 
And when storms are high and your...your dreams are low 
A		       E		  Bm   D 
   I wish you the strength to let love grow 
Asus2		       E		  Bm   D 
   I wish you the strength to let love flow 
Asus2		       E		  Bm   D 
   I wish you the strength to let love glow 
Asus2		       E		  D  Dm  A 
   I wish you the strength to let love go 
 
---------------------------------------------------------------------------- 
This album took me 2 months to done it. 
Comments to the next mail: 
[email protected] 
VIVA CIGARRILLO 
 
less
plus
Add to Songbook Print Version How to play lesson Submit videolesson
Click the best TAGS for this song:
None of them
Contributor: noisjask Correct

If you can not find the chords or tabs you want, look at our partner E-chords. If you are a premium member, you have total access to our video lessons.

If you find a wrong Bad To Me from Eagles, click the correct button above.

login/signup
my songbooks
my recent views
my submits