Eagles

Seven Bridges road (solo) tab

Eagles

tools Ultimate Tabs

Start AutoScroll Font Size Down Font Size Up

Find us on Facebook

chords
tabs
bass
ukulele
keyboards
drums
flute
harmonica
guitar pro
video
Ultimate-Tabs

Seven Bridges road (solo)

SEVEN BRIDGES ROAD: Eagles 
 
 
D 
e----------------------------------------------------------------- 
B-----3-------3-----3-------3-----3-------3-----3-------3--------- 
G--------0h2-----------0h2-----------0h2-----------0h2------------ 
D--0-------------0-------------0-------------0-------------------- 
A----------------------------------------------------------------- 
E----------------------------------------------------------------- 
 
 
D         C            G        G 
There are stars in the southern sky 
D         C      G    D 
Southward as you go...o 
D        C             G           D 
There is moonlight and moss in the trees 
         D     C       G  D 
Down the seven bridges ro-oad 
	D (4X) 
e----------------------------------------------------------------- 
B-----3-------3-----3-------3-----3-------3-----3-------3--------- 
G--------0h2-----------0h2-----------0h2-----------0h2------------ 
D--0-------------0-------------0-------------0-------------------- 
A----------------------------------------------------------------- 
E----------------------------------------------------------------- 
 
 
(lead in - one bar each: D D C G D D) 
 
	C				   G				   D 
e----------------------------------------------------------------- 
B---------------------------------------------------3-------3----- 
G---------------0--0h2p0-------------------------------0h2-------- 
D-----------0h2----------2-----------0-0h2p0-----0---------------- 
A--0-2-3--3----------------------0h2---------2-------------------- 
E----------------------------3-3---------------------------------- 
 
 
    D      C     G          D 
Now I have loved you like a baby 
          C        G      D 
Like some lonesome chi... ild 
    D      C     G        D 
And I have loved you in a tame way 
    D      C         G    D 
And I have loved you wi...ild 
 
    C               D 
Sometimes there's a part of me 
       C                  D 
has to turn from here and go  
C                         D 
Running like a child from these warm stars 
         D     C       C    D 
Down the seven bridges ro...oad 
D         C            G        D 
There are stars in the southern sky 
       D                               D 
And if ever you decide you should go...o 
D          C        G              D 
There is a taste of time sweetened honey 
         D     C       G         D 
Down the seven bridges ro...oad 
 
 
less
plus
Add to Songbook Print Version How to play lesson Submit videolesson
Click the best TAGS for this song:
None of them
Contributor: sabusexy Correct

If you can not find the chords or tabs you want, look at our partner E-chords. If you are a premium member, you have total access to our video lessons.

If you find a wrong Bad To Me from Eagles, click the correct button above.

login/signup
my songbooks
my recent views
my submits