Elemenop

You Are (Intro Tabs) tab

Elemenop

tools Ultimate Tabs

Start AutoScroll Font Size Down Font Size Up

Find us on Facebook

chords
tabs
bass
ukulele
keyboards
drums
flute
harmonica
guitar pro
video
Ultimate-Tabs

You Are (Intro Tabs)

 
This is a short intro but sounds good if it is played right. Go New Zealand music, it rocks!!! 
   
intro: 
e|-----------------|-----------------|-----------------|-----------------| 
B|-5---5---5---5-7-|-5---5---5---5-7-|-5---5---5---5-7-|-0---------------| 
G|-----------------|-----------------|-----------------|-----------------| 
D|---7---7---7-----|---7---7---7-----|---7---7---7-----|-----------------| 
A|-0---------------|-7---------------|-0---------------|-2---------------| 
E|-----------------|-----------------|-----------------|-----------------| 
                                                         ^ 
                                                         (distorted) 
                                                         let these ring on 
e|------------------|------------------|------------------|------------------| 
B|-55--55--55--55/7-|-5---5---5---55/7-|-5---5---5---55/7-|-5---5---5-3------| 
G|------------------|------------------|------------------|-------------6-4--| 
D|---7---7---7------|---7---7---7------|---7---7---7------|---7---7----------| 
A|-0----------------|-7----------------|-0----------------|-7----------------| 
E|------------------|------------------|------------------|------------------| 
 
e|-----------------| 
B|-----------------| 
G|-3---------------| 
D|-----------------| 
A|-0---------------| 
E|-----------------| 
   ^let these ring on 
 
Im sure this is how it goes. Thanks BrianLt. 
 
less
plus
Add to Songbook Print Version How to play lesson Submit videolesson
Click the best TAGS for this song:
None of them
Contributor: biaubeat Correct

If you can not find the chords or tabs you want, look at our partner E-chords. If you are a premium member, you have total access to our video lessons.

If you find a wrong Bad To Me from Elemenop, click the correct button above.

login/signup
my songbooks
my recent views
my submits