Elton John

Your Song tab

Elton John

Album:Elton John

Year:1970

tools Ultimate Tabs

Start AutoScroll Font Size Down Font Size Up

Find us on Facebook

Ultimate-Tabs

Your Song

*Intro (piano, transcribed for guitar): 

e|---7-7-5-8-7-7---|-------5-5---------|----7-7-5----| 
B|-5-------------8-|-5-7-7-----8-8-8-8-|w------------| 
G|-----------------|-------------------|a------------| 
D|-----------------|-------------------|i------------| 
A|-----------------|-------------------|t------------| 
E|-----------------|-------------------|-------------| 




*Verse 1 (00:11): 

Em                   G 
Eg  ser  at  du  er  trøtt, 

     C               B                  Em           C       B 
men  eg  kan  ikkje  gå  alle  skritta  for  deg. 

    Em          A    
Du  må  gå  de  sjøl, 

     D               E    A       
men  eg  ve  gå  de  med  deg. 

D               Em 
Eg  ve  gå  de  med  deg. 




*Piano (00:40): 

e|-7-7-5-8-7-7-5-5--------------|----------------7-5----| 
B|-----------------8-7-5-5-7-5~-|w---5-7~--5~-----------| 
G|------------------------------|a-----------8----------| 
D|------------------------------|i-------------9--------| 
A|------------------------------|t----------------------| 
E|------------------------------|-----------------------| 




*Verse 2 (00:54): 

Em                     G 
Eg  ser  du  har  det  vondt, 

     C               B            B       Em         C      B        
men  eg  kan  ikkje  grina  alle  tårene  for  deg. 

    Em              A    
Du  må  grina  de  sjøl, 

     D              Em         A       
men  eg  ve  grina  med  deg. 

D              Em 
Eg  ve  grina  med  deg. 




*Piano (01:21): 

e|-7-7-5-8-7-7-5-5--------------|-------------| 
B|-----------------8-8-7-7-8-5~-|w---5-7-8----| 
G|------------------------------|a------------| 
D|------------------------------|i------------| 
A|------------------------------|t------------| 
E|------------------------------|-------------| 




*Verse 3 (01:32): 

Em                    G 
Eg  ser  du  vil  gi  opp, 

     C               B            Em         C      B        
men  eg  kan  ikkje  leva  livet  for  deg. 

    Em                  
Du  må  leva  det  sjøl, 

     D             Em         A       
men  eg  ve  leva  med  deg. 

D             Em 
Eg  ve  leva  med  deg. 




*Piano (01:59): 

e|-12-12------15-15-----------14-12----------------------|----------------------------------| 
B|-------12---------12--------------------15-13-------13-|-------12-------------------------| 
G|-------------------------14-------12-11-------12-11----|-11-12------12-11-14-----11-12----| 
D|-------------------------------------------------------|----------------------------------| 
A|-------------------------------------------------------|----------------------------------| 
E|-------------------------------------------------------|----------------------------------| 




*Verse 4 (02:13): 

Em                   G 
Eg  ser  at  du  er  redd, 

     C               B             Em         C      B        
men  eg  kan  ikkje  gå  i  døden  for  deg. 

    Em              A    
Du  må  smaka  han  sjøl, 

     D                   Em              A       
men  eg  gjer  død  til  liv  for  deg. 

D               Em            A       
Eg gjer død til liv for deg. 

D             Em            A        
Eg er død til liv for deg. 

D                    Em           A        D 
Eg har gjort død til liv for deg. 




*Outro (piano) (02:56): 

e|-------------5-------------------|------------5---------5---------------------| 
B|-8-7-7-5-5-------7-7-8-8-5-5-7-7-|---8-7-5-5--------7-------8~----------------| 
G|-----------6---------------------|---------------------------------fade-------| 
D|---------------------------------|-------------------------------------out----| 
A|---------------------------------|--------------------------------------------| 
E|---------------------------------|--------------------------------------------| 



| /  slide up 
| \  slide down 
| h  hammer-on 
| p  pull-off 
| ~  vibrato 
| +  harmonic 
| x  Mute note 

less
plus
Add to Songbook Print Version How to play lesson Submit videolesson
Click the best TAGS for this song:
None of them
Contributor: 0200midn Correct

If you can not find the chords or tabs you want, look at our partner E-chords. If you are a premium member, you have total access to our video lessons.

If you find a wrong Bad To Me from Elton John, click the correct button above.

login/signup
my songbooks
my recent views
my submits