Elvis Presley

Treat me Nice bass

Elvis Presley

Album:Elvis 2nd to None

Year:2003

tools Ultimate Tabs

Start AutoScroll Font Size Down Font Size Up

Find us on Facebook

chords
tabs
bass
ukulele keyboards
drums
flute
harmonica
guitar pro
video
Ultimate-Tabs

Treat me Nice

As played by Bill Black in the key of E in the movie version of this song from 
Rock" - Thanks to DJ ERICH for tabbing out most of this song.

INTRO X 2:

   E

G-------------------------|
D--------------2----------|
A--------2--4-----4--2----|
E--0--4-----------------4-|

======================================================================================

VERSE X 2:

When I walk through that door...                     You're gonna make me sore...

   E                                  E7             A

G-------------------------|------------------------|------------------------|
D--------------2----------|-------------2----------|-------------7----------|
A--------2--4-----4--2----|-------2--4-----4--2----|-------7--9-----9--7----|
E--0--4-----------------4-|-0--4-----------------4-|-5--9-----------------9-|


  A

G-------------------------|
D--------------7----------|
A--------7--9-----9--7----|
E--5--9-----------------9-|

Ever kiss me once...        Kiss me twice... Treat me Nice...

   B             E            F#                     E

G---------------------------|----------------------|------------------------|
D---------------------------|----------------------|------------------------|
A---------9--11--------2--4-|-------4--6-----------|-------2--4--2----------|
E--7--11---------0--4-------|-2--6--------7--------|-0--4-----------4--0--0-|


=======================================================================================

CHORUS


Make me feel at home...

   A           E            A          E            A           E

G-------------------------|------------------------|------------------------|
D-------------------------|------------------------|------------------------|
A--------7--9--------2--4-|-------7--9--------2--4-|-------7--9--------2--4-|
E--5--9--------0--4-------|-5--9--------0--4-------|-5--9--------0--4-------|


  A            B

G---------------------------|
D---------------------------|
A--------7--9---------9--11-|
E--5--9--------7--11--------|


========================================================================================

VERSE (SLAP)


CHORUS


VERSE

========================================================================================

OUTRO:

 E

G------------------------|
D------------------------| X 3
A-------2--4--2----------|
E-0--4-----------4--0--0-|


  A           B               E
G--------------------------|------------------------|
D--------------------------|------------------------|
A-------7--9---------9--11-|-------2--4--2--0-------|
E-5--9--------7--11--------|-0--4--------------4--0-|


Email me at [email protected] for any corrections, or if you need any help, but 
a pretty straight-forward song.
less
plus
Add to Songbook Print Version How to play lesson Submit videolesson
Click the best TAGS for this song:
None of them
Contributor: roflfark Correct

If you can not find the chords or tabs you want, look at our partner E-chords. If you are a premium member, you have total access to our video lessons.

If you find a wrong Bad To Me from Elvis Presley, click the correct button above.

login/signup
my songbooks
my recent views
my submits