tools Ultimate Tabs

Start AutoScroll Font Size Down Font Size Up

Find us on Facebook

chords
tabs
bass
ukulele
keyboards
drums
flute
harmonica
guitar pro
video
Ultimate-Tabs

In Denial

Intro
e|-----10-------12-------10-------12-------10--------|-----8--------10-------8--------10-------8---------|
B|--------10-------10-------10-------10-------11-----|--------8--------8--------8--------8--------8------|
G|--11-------11-------11-------11-------11-------11--|--9--------9--------9--------9--------9--------9---| x2
D|---------------------------------------------------|---------------------------------------------------| 
A|---------------------------------------------------|---------------------------------------------------|
E|---------------------------------------------------|---------------------------------------------------|

e|-----10-------12-------14-------12-------10--------|-----8--------10-------8--------10-------8---------|
B|--------10-------10-------10-------10-------11-----|--------8--------8--------8--------8--------8------|
G|--11-------11-------11-------11-------11-------11--|--9--------9--------9--------9--------9--------9---| x2
D|---------------------------------------------------|---------------------------------------------------| 
A|---------------------------------------------------|---------------------------------------------------|
E|---------------------------------------------------|---------------------------------------------------|

e|-----10-------12-------14-------12-------10--------|
B|--------10-------10-------10-------10-------11-----|
G|--11-------11-------11-------11-------11-------11--|
D|---------------------------------------------------|
A|---------------------------------------------------|
E|---------------------------------------------------|

e|--3--3--3--3--3--3--3--3--3--3--3--3--3--3--3--3---|
B|--3--3--3--3--3--3--3--3--3--3--3--3--3--3--3--3---|
G|--4--4--4--4--4--4--4--4--4--4--4--4--4--4--4--4---| x2
D|--5--5--5--5--5--5--5--5--5--5--5--5--5--5--5--5---|
A|--5--5--5--5--5--5--5--5--5--5--5--5--5--5--5--5---|
E|--3--3--3--3--3--3--3--3--3--3--3--3--3--3--3--3---|


Verse 1
e|-----8--------10-------8--------10-------8---------|-----8--------10-------8--------10-------8---------|
B|--------8--------8--------8--------8--------8------|--------8--------8--------8--------8--------8------|
G|--9--------9--------9--------9--------9--------9---|--9--------9--------9--------9--------9--------9---|
D|---------------------------------------------------|---------------------------------------------------|
A|---------------------------------------------------|---------------------------------------------------|
E|---------------------------------------------------|---------------------------------------------------|
Oh they're attacking, follow them round
                                                                                                          
e|--10-10-10-10-10--------10----10----10-10-8--8--8--|--10-10-10-10-10--------10----10----10-10-8--8--8--|
B|--10-10-10-10-10--------10----10----10-10-8--8--8--|--10-10-10-10-10--------10----10----10-10-8--8--8--|
G|--11-11-11-11-11--------11----11----11-11-9--9--9--|--11-11-11-11-11--------11----11----11-11-9--9--9--|
D|--12-12-12-12-12--------12----12----12-12-10-10-10-|--12-12-12-12-12--------12----12----12-12-10-10-10-|
A|--12-12-12-12-12--------12----12----12-12-10-10-10-|--12-12-12-12-12--------12----12----12-12-10-10-10-|
E|--10-10-10-10-10--------10----10----10-10-8--8--8--|--10-10-10-10-10--------10----10----10-10-8--8--8--|

e|-----8--------10-------8--------10-------8---------|-----8--------10-------8--------10-------8---------|
B|--------8--------8--------8--------8--------8------|--------8--------8--------8--------8--------8------|
G|--9--------9--------9--------9--------9--------9---|--9--------9--------9--------9--------9--------9---|
D|---------------------------------------------------|---------------------------------------------------|
A|---------------------------------------------------|---------------------------------------------------|
E|---------------------------------------------------|---------------------------------------------------|
There goes my curer, swallow her down 

e|--10-10-10-10-10--------10----10----10-10-8--8--8--|--10-10-10-10-10--------10----10----10-10-8--8--8--|
B|--10-10-10-10-10--------10----10----10-10-8--8--8--|--10-10-10-10-10--------10----10----10-10-8--8--8--|
G|--11-11-11-11-11--------11----11----11-11-9--9--9--|--11-11-11-11-11--------11----11----11-11-9--9--9--|
D|--12-12-12-12-12--------12----12----12-12-10-10-10-|--12-12-12-12-12--------12----12----12-12-10-10-10-|
A|--12-12-12-12-12--------12----12----12-12-10-10-10-|--12-12-12-12-12--------12----12----12-12-10-10-10-|
E|--10-10-10-10-10--------10----10----10-10-8--8--8--|--10-10-10-10-10--------10----10----10-10-8--8--8--| 

e|-----8--------10-------8--------10-------8---------|-----10-------12-------14-------12-------10--------|
B|--------8--------8--------8--------8--------8------|--------10-------10-------10-------10-------11-----|
G|--9--------9--------9--------9--------9--------9---|--11-------11-------11-------11-------11-------11--| x3
D|---------------------------------------------------|---------------------------------------------------|
A|---------------------------------------------------|---------------------------------------------------|
E|---------------------------------------------------|---------------------------------------------------|
We'll suffocate ourselves
You say I lost my way
But we'll explain ourselves
     Em                 D
In a language we cannot speak


Chorus
A                B              E              E
Right before you said you wanna make it up yourself
A              B  E  E7
I forgive this time
A      G#   
  I'm lost
C#m      A
  We are one
C                        B
You and me together in denial


Verse 2
e|-----8--------10-------8--------10-------8---------|-----8--------10-------8--------10-------8---------|
B|--------8--------8--------8--------8--------8------|--------8--------8--------8--------8--------8------|
G|--9--------9--------9--------9--------9--------9---|--9--------9--------9--------9--------9--------9---|
D|---------------------------------------------------|---------------------------------------------------|
A|---------------------------------------------------|---------------------------------------------------|
E|---------------------------------------------------|---------------------------------------------------|
Oh, the silence in between sound
                                                                                                          
e|--10-10-10-10-10--------10----10----10-10-8--8--8--|--10-10-10-10-10--------10----10----10-10-8--8--8--|
B|--10-10-10-10-10--------10----10----10-10-8--8--8--|--10-10-10-10-10--------10----10----10-10-8--8--8--|
G|--11-11-11-11-11--------11----11----11-11-9--9--9--|--11-11-11-11-11--------11----11----11-11-9--9--9--|
D|--12-12-12-12-12--------12----12----12-12-10-10-10-|--12-12-12-12-12--------12----12----12-12-10-10-10-|
A|--12-12-12-12-12--------12----12----12-12-10-10-10-|--12-12-12-12-12--------12----12----12-12-10-10-10-|
E|--10-10-10-10-10--------10----10----10-10-8--8--8--|--10-10-10-10-10--------10----10----10-10-8--8--8--|

e|-----8--------10-------8--------10-------8---------|-----10-------12-------14-------12-------10--------|
B|--------8--------8--------8--------8--------8------|--------10-------10-------10-------10-------11-----|
G|--9--------9--------9--------9--------9--------9---|--11-------11-------11-------11-------11-------11--| x3
D|---------------------------------------------------|---------------------------------------------------|
A|---------------------------------------------------|---------------------------------------------------|
E|---------------------------------------------------|---------------------------------------------------|
Make the bruises show themselves
Let them light up the way
Then we'll expose ourselves
     Em               D
To a nation we cannot say  


Chorus
A                B              E              E
Right before you said you wanna make it up yourself
A              B  E  E7
I forgive this time
A      G#   
  I'm lost
C#m      A
  We are one
C                        B
You and me together in denial


Solo
e|-----------17--15--14~-14~-14-14-14-14-------------------10--10-10-10---------------------|
B|--13~-13~------------------------------------------------10--10-10-10---------------------|
G|--------------------------------------------------9--12--11--11-11-11-11h12p11--11h12p11--|
D|----------------------------------------10~10~10~--------12--12-12-12---------------------|
A|---------------------------------------------------------12--12-12-12---------------------|
E|---------------------------------------------------------10--10-10-10---------------------|

e|------------------------------------------------------------------------------------------|
B|------------------------------------------------------------------------------------------|
G|-----------------11--11-11-11---------------------------------11----9--7~7~7~7~7~7~7~7~---|
D|--10~-10~--------12--12-12-12---------------10--10-10-10-10~------------------------------|
A|-----------------12--12-12-12-9-9h10p9-7-9------------------------------------------------|
E|----------11-11--10--10-10-10-------------------------------------------------------------|


Chorus
A                B              E              E
Right before you said you wanna make it up yourself
A              B  E  E7
I forgive this time
A      G#   
  I'm lost
C#m      A
  We are one
C                        B
You and me together in denial


Chorus
A                B              E              E
Right before you said you wanna make it up yourself
A              B  E  E7
I forgive this time
A      G#   
  I'm lost
C#m      A
  We are one
C                        B
You and me together in denial
C                        B
You and me together in denial
C         D         B
Oooh oooh oooh oooh oooooooh

e|-----------------------------------------------------------------|
B|--13----15b16r15--13----14--------14-16-16-16-16-16-16-16-16-----|
G|-----------------------------------------------------------------|
D|-----------------------------------------------------------------|
A|-----------------------------------------------------------------|
E|-----------------------------------------------------------------|
   Oooh     oooh         oooh  oooh      ahhhhhhhh
e|----------------------------------------------------------0------|
B|----------------------------------------------------------0------|
G|--5----------6----------8----------9----------11----------1------|
D|----------------------------------------------------------2------|
A|----------------------------------------------------------2------|
E|----------------------------------------------------------0------|
  ahhh ahhh  ahhh ahhh ahhhhhhhh    ahhh ahhh  ahhh ahhh ahhhhhhhh


************************************

| h   Hammer-on
| p   Pull-off
| r   Release
| b   Bend
| ~   Vibrato

************************************
less
plus
Add to Songbook Print Version How to play lesson Submit videolesson
Click the best TAGS for this song:
None of them
Contributor: Anonymous Correct

If you can not find the chords or tabs you want, look at our partner E-chords. If you are a premium member, you have total access to our video lessons.

If you find a wrong Bad To Me from End Of Fashion, click the correct button above.

login/signup
my songbooks
my recent views
my submits