tools Ultimate Tabs

Start AutoScroll Font Size Down Font Size Up

Find us on Facebook

chords
tabs
bass
ukulele
keyboards
drums
flute
harmonica
guitar pro
video
Ultimate-Tabs

Step Across

Intro:
G:----------------------------------|
D:----------------------------------|
A:----------------------4---43-3----|   x4
E:--13\------1---34-4---------------|

The Verse has 2 sections:
Section 1:
G:----------------------------------------------|
D:----------------------------------------------|
A:-------------4---43-3--------------4---43-33--|
E:--1---34-4--------------1---34-4--------------|

G:----------------------------------------------|
D:----------------------------------------------|
A:-------------1---34-4---4-3--44---------------|
E:--1---34-4------------------------00000000----|

Section 2:
G:----------------------------------------------|
D:----------------------------------------------|
A:-------------4---43-3--------------4---43-33--|
E:--1---34-4--------------1---34-4--------------|

G:----------------------------------------------|
D:--------------------------------------2222----|
A:-------------1---34-4---4-3--44---------------|
E:--1---34-4------------------------0000--------|

Chorus:
G:-------------------------------|
D:-----------------31-1----------|
A:-------4-4---------------------|     x2
E:--1---3------4-----------------|

G:-----------------------------------------|
D:-----------------------------------------|
A:-------4-4---4-43-3--------------4-43-3--|
E:--1---3---------------1---34-4-----------|

Verse section 2

Chorus

Guitar Solo:
G:----------------------------------------|
D:----------------------------------------|
A:--2222222---2222222---------------------|
E:----------------------4444444---4444444-|

G:----------------------------------------|
D:----------------------------------------|
A:----------------------------------------|
E:--3333333---3333333---2222222---2222222-|

Fade Out, then:
G:---------------|
D:--3-----3------|
A:---------------|   x2
E:----1-1---1-1--|

Chorus x3

Final note:
G:-------|
D:-------|
A:-------|
E:--1----|

this was tabbed by drkelso. if you have any questions or corections, my email address is 
dont necessarily expect a reply, though, i might just edit the tab as a response.
less
plus
Add to Songbook Print Version How to play lesson Submit videolesson
Click the best TAGS for this song:
None of them
Contributor: SergJKof Correct

If you can not find the chords or tabs you want, look at our partner E-chords. If you are a premium member, you have total access to our video lessons.

If you find a wrong Bad To Me from Envy And Other Sins, click the correct button above.

login/signup
my songbooks
my recent views
my submits