Equals

Baby Come Back bass

Equals

tools Ultimate Tabs

Start AutoScroll Font Size Down Font Size Up

Find us on Facebook

chords tabs
bass
ukulele keyboards
drums
flute
harmonica
guitar pro video
Ultimate-Tabs

Baby Come Back

Baby Come Back
Originally released by The Equals as a B side in 1966 the song
did not chart. Re-issued as an A side in 1968 and a number 1 in
the UK. Original bassist Lincoln Gordon. Tab by bass50611.
Straight forward and very easy. Tab as per the original recording.
Please be aware there are several re-recordings of this track and
you might find this does not fit the recording you may have.
(First part of intro usually played by lead guitar)
Any comments its [email protected]

Intro:                (PLAY THIS BIT x 6)
G|-4-4--4-----|  |-----------------------|
D|----6---6-4-|  |-----------------6-----|
A|------------|  |--------6-7-9-9-9--9-7-|
E|------------|  |-7-7-7-9---------------|

Verse:                                       (PLAY QUAVERS)
G|----------------------------------------------------------------|
D|---------------8-9-11---------------8-9-11---------------8-9-11-|
A|-9-9-9-9-9-9-9--------9-9-9-9-9-9-9--------99999999-99999-------|
E|----------------------------------------------------------------|
                                             (PLAY QUICKLY)
G|-------------------------------------------11--11--11--11-|
D|---------------8-9-11-------------------------------------|
A|-99999999-99999-------99999999-99999999---9---9---9--9----|
E|----------------------------------------------------------|

Chorus:   (PLAY THIS x 4)
G|-----------------------|
D|-----------------6-----|
A|--------6-7-9-9-9--9-7-|
E|-7-7-7-9---------------|

REPEAT VERSE:

REPEAT CHORUS:

REPEAT VERSE:

REPEAT CHORUS TO FADE/END:
less
plus
Add to Songbook Print Version How to play lesson Submit videolesson
Click the best TAGS for this song:
None of them
Contributor: Mannnois Correct

If you can not find the chords or tabs you want, look at our partner E-chords. If you are a premium member, you have total access to our video lessons.

If you find a wrong Bad To Me from Equals, click the correct button above.

login/signup
my songbooks
my recent views
my submits