tools Ultimate Tabs

Start AutoScroll Font Size Down Font Size Up

Find us on Facebook

chords
tabs
bass
ukulele
keyboards
drums
flute
harmonica
guitar pro
video
Ultimate-Tabs

Because

    Essa música não é um blues se for tocada basicamente com acordes simples , más sim com
muitas variações , e é um grande partido para pessoas esperientes , más para novatos , o que custa tentar ?

Introdução 

Essa música é composta por compassos de 12 tempos ,
se ligue nisso !!

E|-3-4--4-4-4--4-4-3-3-2-2-0-|
B|-2h3--3-3-3--3-3-2-2-1-1-0-| 
G|---------------------------|
D|---------------------------|
A|---------------------------|
E|---------------------------|

Agora improvise a escala de Em !  Eu vou colocar mais ou menos só pra vc ter um base !!!

E|-----------3-0-----------------|
B|------3--------3-0-------------|
G|--0h1----1---------2-0---------|
D|-----------------------2-0-----|
A|----------------------------0p2|
E|-------------------------------|

Agora vai começar o vocal 
sempre quando eu colocar E você fará a
seguinte variação de E compassadamente e tente dar uma levada , um molho na música bem blues !! 

E|-----------------|
B|-----------------|
G|-0h1-0-2-0-4-0-2-|
D|-----------------|
A|-0h2-0-4-0-5-0-4-|
E|-----------------|

Sempre que eu por A na música faça seguinte variação :

E|-1h2
B|-1h2
G|-1h2
D|-1h2 deixe A NOTA após o hameron como pestana da variação a seguir :

E|-------|
B|--3-5-3|
G|-------|
D|--4-5-4|
A|-------|
E|-------|

E aonde tiver DOIS asteriscoS    é um toquinho daora 
característico do Blues de enfase na corda mizinha:

E|-------0------0------0------0-----------|
B|--2h4----4--3---3--2---2--1---1---------|
G|----------------------------------------|
D|----------------------------------------|
A|---------------------------------0h1h2--|
E|----------------------------------------|

E a ultima é o B  , faça o mesmo que o A
mas com a pestana na casa 4 e as variações andam com ele é claro !! 

 Vocal

 E                     A                     E E
Before you accuse me, take a look at yourself
 E                     A                     E E
Before you accuse me, take a look at yourself
 B                             
You say I've been spending my money on other women
               A                             
You've been taking money from someone else 


 E                    A                         E E
I called your mama 'bout three or four nights ago
 E                    A                         E E
I called your mama 'bout three or four nights ago
 B
Well your mother said "Son"
  A                                 
"Don't call my daughter no more" 


AÍ TEM UM SOLINHO UTILIZE AS ACORDES DA MÚSICA E 
ESCALAS IMPROVISADAS QUE É FACINHO !

  
    First Verse


 E                    A                       E  E
Come back home baby, try my love one more time
 E                    A                       E  E
Come back home baby, try my love one more time
  B                     
If I don't go on and quit you
  A                       
I'm gonna lose my mind



  First Verse


_______________________________________________________
Contribuição: Augusto Cézar([email protected]) 
less
plus
Add to Songbook Print Version How to play lesson Submit videolesson
Click the best TAGS for this song:
None of them
Contributor: LevoAnde Correct

If you can not find the chords or tabs you want, look at our partner E-chords. If you are a premium member, you have total access to our video lessons.

If you find a wrong Bad To Me from Eric Clapton, click the correct button above.

login/signup
my songbooks
my recent views
my submits