tools Ultimate Tabs

Start AutoScroll Font Size Down Font Size Up

Find us on Facebook

Ultimate-Tabs

Layla

Intro 
2X 
guitar one (Clapton)  |guitar two (Duane Allman) 
|---------------------|---------------------------------| 
|---------------------|---------------------------------| 
|---------7h10p7----7-|---7/5--3-------5-------7--------| 
|---7h10---------10---|---7/5--3-------5-------7--------| 
|---------------------|---5/3--1-0-----3-0-----5--------| 
|---------------------|------------1/3-----3/5----------| 
 
This part 2X 
guitar one (Clapton)     * 
|-------10h13p10----10---13b-13r-12----10---------------| 
|-10h13----------13-----------------13------------------| 
|-------------------------------------------------------| 
|-------------------------------------------------------| 
|-------------------------------------------------------| 
|-------------------------------------------------------| 
 
                                      1st    2nd 
                                     ------ ------- 
                         *           |      | 
|-------10h13p10----10---15b-15r-12-----10-----9b~~~~~~-| 
|-10h13----------13----------------13-------------------| 
|-------------------------------------------------------| 
|-------------------------------------------------------| 
|-------------------------------------------------------| 
|-------------------------------------------------------| 
 
 
then go on to the rest of the song, you can get from 
the unplugged version 
Date: Sat, 11 Jan 1997 22:23:54 -0500 
From: SAMDOG  
Subject: Tab: Layla by Eric Clapton 
 
Layla 
by Eric Clapton 
 
     I'm not a very big fan of his, but I like the main riff to 
this song. Here it is. 
 
e---------------------------------------------------------------- 
b---------------------------------------------------------------- 
g-----------------7---3---3--5---5--7---------------------------- 
d------0-3-0---0--7---3---3--5---5--7---------------------------- 
a--0-3-------3----5---1-0-1--3-0-3--5---------------------------- 
e---------------------------------------------------------------- 
less
plus
Add to Songbook Print Version How to play lesson Submit videolesson
Click the best TAGS for this song:
None of them
Contributor: Goyuarng Correct

If you can not find the chords or tabs you want, look at our partner E-chords. If you are a premium member, you have total access to our video lessons.

If you find a wrong Bad To Me from Eric Clapton, click the correct button above.

login/signup
my songbooks
my recent views
my submits