Eric Clapton

Tears in heaven (acustic) tab

Eric Clapton

tools Ultimate Tabs

Start AutoScroll Font Size Down Font Size Up

Find us on Facebook

chords
tabs
bass
ukulele
keyboards
drums
flute
harmonica
guitar pro
video
Ultimate-Tabs

Tears in heaven (acustic)

 
  H    Q  E S S   E E S S E E E E E   +E  E E E E E E E   E E E E E E E E 
|---------------|-------------------|-------------------|------------------| 
|---------------|-----2-3---5---5-2-|-(2)---2---2---2---|-3---3---3---3----| 
|---------------|---2---6-2-4---4-2-|-(2)---2---2---2---|-2---2---2---1----| 
|---------------|-------------------|-------------------|------------------| 
|---------------|-0-----------------|-------------------|------------------| 
|-----------0-2-|-----------4-4---2-|-(2)-2---2-0-0---0-|-2-2---2-0-0-0-0--| 
 
 
  E E E E E E E S S   E E S  S E Q  E E 
|-------------------|-------------------| 
|-2---2---2---2-----|------------5--5-2-| 
|-2---2---2---2-----|-----6--7---4--4-2-| 
|-------------------|---7---11-7--------| 
|-0-0---0---0-------|-------------------| 
|---------------0-4-|-5----------4--4-2-| 
| 
| Gtr II 
| W                   E E S  S E Q  E E 
|-------------------|-------------------| 
|-------------------|-----2--3---5----2-| 
|-------------------|---2----6-2-4----2-| 
|-------------------|-------------------| 
|-------------------|-0-----------------| 
|-------------------|------------4----2-| 
 
 
  +E  E E   E E   E E E   E E E E E E E E 
|-----------------------|-----------------| 
|-(2)---2-----2-----2---|-3---3---2---2---| 
|-(2)---2-----2-----2---|-2---2---2---2---| 
|-----------------------|-----------------| 
|-----------------------|---------0-0-----| 
|-(2)-2-----2-0---0---0-|-2-2---2-------0-| 
| 
|  Q    S S E S S E E E   Q   Q   E E E E 
|-------2---0-2---------|-----0-----------| 
|-------3---1-2---5-2-5-|-3---3---2-3-5---| 
|-------5-----4---4-2-4-|-2---------------| 
|-----------------------|---------------6-| 
|-----------------------|-----------------| 
|-----------------------|-----------------| 
 
 
  E E E E   E E    E S S   E E S  S E Q  E E 
|------------------------|-------------------| 
|-0---0-----2------3-----|-----2--3---5--5-2-| 
|-1---1-----2------4-----|---2----6-2-4--4-2-| 
|-2----------------------|-------------------| 
|------------------------|-0-----------------| 
|---0---0-----0------0-2-|------------4--4-2-| 
| 
| Q   E S S E S  S Q       E E S  S E Q  E E 
|------------------------|-------------------| 
|------------------------|------------5----2-| 
|------------------------|-----6--7---4----2-| 
|-6---6-----7------9-----|---7---11-7--------| 
|------------------------|-------------------| 
|-------7-9---9-10-------|-5----------4--4---| 
 
 
  +E  E E E E   E E E   E E E E E E E E 
|---------------------|-------------0----| 
|-(2)---2---2-----2---|-3---3---2---2----| 
|-(2)---2---2-----2---|-2---2---2---2----| 
|---------------------|------------------| 
|---------------------|------------------| 
|-(2)-2---2-0---0---0-|-2-2---2-0-0---0--| 
| 
| +E  E E E S S E E E   Q   Q   E E E E 
|-------2-4-5---4-2---|------------------| 
|-(2)-2---0-9---0---5-|-3---3---2-3-5----| 
|-(2)-2-2---6-----2-1-|-----2------------| 
|-----------9---------|-4-------------6--| 
|---------------------|------------------| 
|-----2---------------|------------------| 
 
 
  E E E E   E E    E E   E  E  E E  E   E  E  E 
|----------------------|-2-----2----2------2----| 
|-0---0-----2------3---|-2-----2----2------2----| 
|-1---1-----2------4---|-2-----2----2------2----| 
|-2--------------------|-2-----2----2------2----| 
|----------------------|-4-----4----4------4----| 
|-0-0---0-----0------0-|-2--2----2------2-----0-| 
| 
| E E E S S E S  S Q     E  E  E E +E   E  E  E 
|----------------------|------------------------| 
|----------------------|------------------------| 
|----------------------|------11----------11----| 
|-6---6-----7------9---|---11----------11----11-| 
|----------------------|-9----12-9-(9)----12----| 
|---0---7-9---9-10-----|------------------------| 
 
 
   E  E  E  E  E  E  E  E    E  E  E  E  E  E  E  E 
|--1-----1-----1-----1----|--0-----0-----0-----0----| 
|--2-----2-----2-----2----|--2-----2-----2-----2----| 
|--1-----1-----1-----1----|--0-----0-----0-----0----| 
|-------------------------|--2-----2-----2-----2----| 
|-------------------------|-------------------------| 
|--1--1-----1-----1-----1-|--0--0-----0-----0-----0-| 
| 
|  E  E  E  E  E  E  E  E    E  E  E  E  E  E  E  E 
|-------------------------|-------------------------| 
|-------------------------|-------------------------| 
|-10----10----------------|-------------------------| 
|----11----11-11-11-15-11-|-------14----------14----| 
|-------------------11----|----14----14----14----14-| 
|-13----11----13----------|-12----15----12----15----| 
 
 
  E E E E E E Q    E E E E E E E E   +E  E E E Q.   S S   E E S S E E E E E 
|----------------|-----------------|--------------------|-------------------| 
|-2--------------|-----------------|--------------------|-----2-3---5---5-2-| 
|-3-------4---6--|-7---7---7---7---|-----7-7---7--------|---2---6-2-4---4-2-| 
|-2---2---2------|-7---7---7---7---|-----7-7---7--------|-------------------| 
|----------------|-9---9---9---9---|-----9-9---9--------|-0-----------------| 
|-2-2---2---2-6--|-7-7---7-7-7-7-0-|-(0)-----0------0-2-|-----------4-4---2-| 
| 
| Q   E E Q   Q    E E E E E E E E   +E  E Q   H          E E S S E E E E E 
|-------------2--|-----------------|--------------------|-------------------| 
|---------0---2--|-----3-------3---|-----3--------------|-----2-3---5---5-2-| 
|-3---3---1---3--|-------2---------|-----2--------------|---2---6-2-4---4-2-| 
|-2---2----------|---4-------4-----|--------------------|-------------------| 
|----------------|-2-------2-------|--------------------|-0-----------------| 
|-2-----2--------|---------------0-|-(0)----------------|-----------4-4---2-| 
 
 
  +E  E E   E E   E E E   E E E E Q  Q    E  E E E   E   E   E   S S 
|-----------------------|---------------|----------------------------| 
|-(2)---2-----2-----2---|-3---3---3--3--|-2----2-----2-------2-------| 
|-(2)---2-----2-----2---|-2---2---2--1--|-2----2-----2-------2-------| 
|-----------------------|---------------|----------------------------| 
|-----------------------|---------------|-0--0---0-------0-------0-2-| 
|-(2)-2-----2-0---0---0-|-2-2---2-0--0--|----------------------------| 
| 
|  Q    S S E S S E E E   Q   Q   Q  Q    Q.     S S S S S S S S S S 
|-------2---0-2---------|---------------|----------------------------| 
|-------3---1-2---5-2-5-|-3----------3--|-2--------------2-3-2-------| 
|-------5-----4---4-2-4-|-2----------1--|-2----------2-4-------4-2---| 
|-----------------------|---------------|--------2-4---------------4-| 
|-----------------------|---------------|----------------------------| 
|-----------------------|-2-------------|----------------------------| 
 
 
  E E S  S E Q  E E   +E  E E   E E   E E E 
|-------------------|-----------------------| 
|-----2--3---5--5-2-|-(2)---2-----2-----2---| 
|---2----6-2-4--4-2-|-(2)---2-----2-----2---| 
|-------------------|-----------------------| 
|-0-----------------|-----------------------| 
|------------4--4-2-|-(2)-2-----2-0---0---0-| 
| 
| E E S  S E Q  E E    Q    S S E S S E E E 
|-------------------|-------2---0-2---------| 
|------------5----2-|-------3---1-2---5-2-5-| 
|-----6--7---4----2-|-------5-----4---4-2-4-| 
|---7---11-7--------|-----------------------| 
|-------------------|-----------------------| 
|-5----------4----2-|-----------------------| 
 
 
  E E E E E E E E   E E E E   E E    E S S 
|-----------------|------------------------| 
|-3---3---2---2---|-0---0-----2------3-----| 
|-2---2---2---2---|-1---1-----2------4-----| 
|-----------------|-2----------------------| 
|---------0-0-----|------------------------| 
|-2-2---2-------0-|---0---0-----0------0-2-| 
| 
| Q   Q   E E E E   Q   E S S E S  S Q 
|-----0-----------|------------------------| 
|-3---3---2-3-5---|------------------------| 
|-2---------------|------------------------| 
|---------------6-|-6---6-----7------9-----| 
|-----------------|------------------------| 
|-----------------|-------7-9---9-10-------| 
 
 
  E E S  S E Q  E E   +E  E E E E   E E E 
|-------------------|---------------------| 
|-----2--3---5--5-2-|-(2)---2---2-----2---| 
|---2----6-2-4--4-2-|-(2)---2---2-----2---| 
|-------------------|---------------------| 
|-0-----------------|---------------------| 
|------------4--4-2-|-(2)-2---2-0---0---0-| 
| 
| E E S  S E Q  E E   +E  E E E S S E E E 
|-------------------|-------2-4-5---4-2---| 
|------------5----2-|-(2)-2---0-9---0---5-| 
|-----6--7---4----2-|-(2)-2-2---6-----2-1-| 
|---7---11-7--------|-----------9---------| 
|-------------------|---------------------| 
|-5----------4--4---|-----2---------------| 
 
 
  E E E E E E E E   E E E E   E E    E E 
|-------------0---|----------------------| 
|-3---3---2---2---|-0---0-----2------3---| 
|-2---2---2---2---|-1---1-----2------4---| 
|-----------------|-2--------------------| 
|-----------------|----------------------| 
|-2-2---2-0-0---0-|-0-0---0-----0------0-| 
| 
| Q   Q   E E E E   E E E S S E S  S Q 
|-----------------|----------------------| 
|-3---3---2-3-5---|----------------------| 
|-----2-----------|----------------------| 
|-4-------------6-|-6---6-----7------9---| 
|-----------------|----------------------| 
|-----------------|---0---7-9---9-10-----| 
 
 
  E  E  E E  E   E  E  E    E  E  E  E  E  E  E  E 
|-2-----2----2------2----|--1-----1-----1-----1----| 
|-2-----2----2------2----|--2-----2-----2-----2----| 
|-2-----2----2------2----|--1-----1-----1-----1----| 
|-2-----2----2------2----|-------------------------| 
|-4-----4----4------4----|-------------------------| 
|-2--2----2------2-----0-|--1--1-----1-----1-----1-| 
| 
| E  E  E E +E   E  E  E    E  E  E  E  E  E  E  E 
|------------------------|-------------------------| 
|------------------------|-------------------------| 
|------11----------11----|-10----10----------------| 
|---11----------11----11-|----11----11-11-11-15-11-| 
|-9----12-9-(9)----12----|-------------------11----| 
|------------------------|-13----11----13----------| 
 
 
   E  E  E  E  E  E  E  E   E E E E E E Q 
|--0-----0-----0-----0----|----------------| 
|--2-----2-----2-----2----|-2--------------| 
|--0-----0-----0-----0----|-3-------4---6--| 
|--2-----2-----2-----2----|-2---2---2------| 
|-------------------------|----------------| 
|--0--0-----0-----0-----0-|-2-2---2---2-6--| 
| 
|  E  E  E  E  E  E  E  E   Q   E E Q   Q 
|-------------------------|-------------2--| 
|-------------------------|---------0---2--| 
|-------------------------|-3---3---1---3--| 
|-------14----------14----|-2---2----------| 
|----14----14----14----14-|----------------| 
|-12----15----12----15----|-2-----2--------| 
 
 
  E E E E E E E E   +E  E E E Q.   S S 
|-----------------|--------------------| 
|-----------------|--------------------| 
|-7---7---7---7---|-----7-7---7--------| 
|-7---7---7---7---|-----7-7---7--------| 
|-9---9---9---9---|-----9-9---9--------| 
|-7-7---7-7-7-7-0-|-(0)-----0------0-2-| 
| 
| E E E E E E E E   +E  E Q   H 
|-----------------|--------------------| 
|-----3-------3---|-----3--------------| 
|-------2---------|-----2--------------| 
|---4-------4-----|--------------------| 
|-2-------2-------|--------------------| 
|---------------0-|-(0)----------------| 
 
 
  E E S S E E E E E   +E  E E   E E   E E E 
|-------------------|-----------------------| 
|-----2-3---5---5-2-|-(2)---2-----2-----2---| 
|---2---6-2-4---4-2-|-(2)---2-----2-----2---| 
|-------------------|-----------------------| 
|-0-----------------|-----------------------| 
|-----------4-4---2-|-(2)-2-----2-0---0---0-| 
| 
| E E S S E E E E E    Q    S S E S S E E E 
|-------------------|-------2---0-2---------| 
|-----2-3---5---5-2-|-------3---1-2---5-2-5-| 
|---2---6-2-4---4-2-|-------5-----4---4-2-4-| 
|-------------------|-----------------------| 
|-0-----------------|-----------------------| 
|-----------4-4---2-|-----------------------| 
 
 
  E E E E Q  Q    E  E E E   E   E   E   S S 
|---------------|----------------------------| 
|-3---3---3--3--|-2----2-----2-------2-------| 
|-2---2---2--1--|-2----2-----2-------2-------| 
|---------------|----------------------------| 
|---------------|-0--0---0-------0-----------| 
|-2-2---2-0--0--|------------------------0-2-| 
| 
| Q   Q   Q  Q    Q.     S S S S S S S S S S 
|---------------|----------------------------| 
|-3----------3--|-2--------------2-3-2-------| 
|-2----------1--|-2----------2-4-------4-2---| 
|---------------|--------2-4---------------4-| 
|---------------|----------------------------| 
|-2-------------|----------------------------| 
 
 
  E E E E E   E E E   +E  E E E E E E E 
|-------------------|--------------------| 
|---------------8-5-|-(5)-------3---3----| 
|-----5-----------5-|-(5)-5---7-2-2------| 
|---5---5-----9---7-|-(7)---7------------| 
|-3----------10---7-|-(7)----------------| 
|---------7-------5-|-(5)-------2-----2--| 
| 
| H       Q.      E    Q    Q   Q   Q 
|-----------------3-|--------------------| 
|-----------------0-|-------5---3---3----| 
|-------------------|-------5-------2----| 
|-------------------|--------------------| 
|-3-------2---------|--0-----------------| 
|-------------------|--------------------| 
 
 
  E E E E E E E E   E E E E E E E E   E E E E E  E +E  E   E E E E E E E E 
|-----------------|-----------------|--------------------|-----------------| 
|-----3---3---3---|-----3---3---3---|-----1-5------------|-------------3---| 
|-----0---2---2---|-0---0---2---0-4-|-5-------7--------5-|---5-------2-----| 
|-5---------------|-----------------|--------------------|-----7-5---------| 
|-5---------------|-----------------|---3----------------|---------------3-| 
|-3-3---3-2-2---2-|-0-0---0-2-2-0---|-8-----8-7--7-(7)-5-|-5-----5-2-2-----| 
| 
| Q   E E E E Q     Q   Q   Q   Q     H       Q.       E   Q   Q   Q   Q 
|-----------------|-----------------|------------------3-|-----------------| 
|-----3-3---3-3---|-3-------3---3---|------------------0-|-----5---3---3---| 
|-----0-4---2-2---|-0-------2---0---|--------------------|-----5-------2---| 
|-----------------|-----------------|--------------------|-----------------| 
|-----------------|-----------------|-3-------2----------|-0---------------| 
|-3-------2-------|-----------------|--------------------|-----------------| 
 
 
  E E E E E E E E   Q  E E E E E E 
|-----------------|-0--------------| 
|-3---3---3---3---|-0--0---1---3---| 
|-0---0---2-2-----|-0--0---2---4---| 
|-----------------|-2--------------| 
|-----------------|----------------| 
|-3-3---3-2-2---0-|------0---0---0-| 
| 
| Q   E E E E Q     W 
|-----------------|----------------| 
|-----3-3---3-3---|----------------| 
|-----0-4---2-2---|----------------| 
|-----------------|----------------| 
|-----------------|----------------| 
|-3-------2-------|----------------| 
 
 
  E E S  S  E E  E    E  E    +Q   E E E E E E 
|--------------------------|-------------------| 
|-----2--3-------5-------2-|--(2)--2---2---2---| 
|---2----6--2----4-------2-|--(2)--2---2---2---| 
|--------------------------|-------------------| 
|-0------------------------|-------------------| 
|----------------4-------2-|--(2)----2-0-0---0-| 
| 
| Q   S  S  E E  S S  E  E    +W 
|-----9-10------14---12----|-------------------| 
|-------14-10---17------14-|-(14)--------------| 
|--------------------------|-------------------| 
|--------------------------|-------------------| 
|--------------------------|-------------------| 
|--------------------------|-------------------| 
 
 
  E E  E  E  E  E  S  S  E      E E  E E  E E  E E 
|----------------------------|---------------------| 
|-3----3--5------------------|---------------------| 
|-2----2-----6-----6--7------|---------------------| 
|------------7-------11--7---|--9----9---11---12---| 
|------------0---------------|-11---11---12---14---| 
|-2-2-----------5------------|----0----0----0----0-| 
| 
| Q    E  E  E  E  E     S S    E E  Q    H 
|------------------------9---|----7-------7--------| 
|-----15-15-14-12-------12---|---------------------| 
|-----------------14-----9---|----7-------7--------| 
|-----16----14-12-11----12---|---------------------| 
|----------------------------|---------------------| 
|----------------------------|---------------------| 
 
 
  E  E  S  S  E  E    E E  E    +E  E E E E E E E 
|----------------------------|--------------------| 
|----------------5------5--2-|--(2)---2---2---2---| 
|----------------4------4--2-|--(2)---2---2---2---| 
|------11-12-----------------|--------------------| 
|-0-12----16-12--------------|--------------------| 
|----------------4----4----2-|--(2)-2---2-0-0---0-| 
| 
| Q     S  S  E  S S  E E  E    +W 
|-------9-10----14---12------|--------------------| 
|---------14-10-17--------14-|-(14)---------------| 
|----------------------------|--------------------| 
|----------------------------|--------------------| 
|----------------------------|--------------------| 
|----------------------------|--------------------| 
 
 
  E E  E  E  E  E  S  S  E    E E  E E  E E  E E 
|--------------------------|---------------------| 
|-3----3--5----------------|---------------------| 
|-2----2-----6-----6--7----|---------------------| 
|------------7-------11--7-|--9----9---11---12---| 
|------------0-------------|-11---11---12---14---| 
|-2-2-----------5----------|--0-0----0----0----0-| 
| 
| Q    E  E  E  E  E     E    E E  Q    H 
|------------------------9-|----7-------7--------| 
|-----15-15-14-12-------12-|---------------------| 
|-----------------14-----9-|----7-------7--------| 
|-----16----14-12-11----12-|---------------------| 
|--------------------------|---------------------| 
|--------------------------|---------------------| 
 
 
  E  E  E  E E  E  E  E    E  E  E E  E  E  E E 
|-------2----2-----2----|--1-----1----1-----1----| 
|-2-----2----2-----2----|--2-----2----2-----2----| 
|-2-----2----2-----2----|--1-----1----1-----1----| 
|-----------------------|------------------------| 
|-----------------------|------------------------| 
|-2--2-----2----2-----2-|--1--1----1-----1----1--| 
| 
| E  E  E  E E  E  E  E    E  E  Q    E  E  Q 
|-----------------------|------------------------| 
|-----------------------|------------------------| 
|------11---------11----|------------------------| 
|---11----11---11----11-|----11-15---------------| 
|-9----------9----------|-------11------11-11----| 
|-----------------------|-13---------13----------| 
 
 
   E  E  E  E   E  E  E E   Q   E E Q  Q 
|--0-----0------0-----0---|-------2-------| 
|--2-----2------2-----2---|-2---2---------| 
|--1-----1------1-----1---|-3---3---4--6--| 
|-------------------------|-2---2---------| 
|-------------------------|---------------| 
|--0--0-----0------0----0-|-2-----2-4--6--| 
| 
|  E  E  E  E  +Q     Q     E E Q   Q  Q 
|-------------------------|---------------| 
|-------------------------|-----2---0--2--| 
|-------------------------|-----3---1--3--| 
|-------14-----------14---|---2-----------| 
|----14--------------14---|---------------| 
|-12-------12-(12)--------|-2-------------| 
 
 
  E E E E E E E E   +E  E E E Q.    S S 
|-----------------|----------------------| 
|-----------------|----------------------| 
|-7---7---7---7---|-----7-7---7----------| 
|-7---7---7---7---|-----7-7---7----------| 
|-----------------|----------------------| 
|-7-7---7---7---0-|-(0)-----0-------0-2--| 
| 
| E E Q   E E Q      E  E Q   Q   E S S 
|-----------------|----------------------| 
|-----3-------3---|-----3----------------| 
|-----------------|-----2----------------| 
|---4-------4-----|----------------------| 
|-2-------2-------|----------------------| 
|-----------------|-----------------0-2--| 
 
 
  E E S S E E E E E   +E  E E   E E   E E E   E E E E E E Q 
|-------------------|-----------------------|----------------| 
|-----2-3---5---5-2-|-(2)---2-----2-----2---|-3---3---3---3--| 
|---2---6-2-4---4-2-|-(2)---2-----2-----2---|-2---2---2---1--| 
|-------------------|-----------------------|----------------| 
|-0-----------------|-----------------------|----------------| 
|-----------4-4---2-|-(2)-2-----2-0---0---0-|-2-2---2-0-0-0--| 
| 
| Q   S S E E E E E   +E  E S S E S S E E E   Q   Q   Q   Q 
|-------------------|-------7---5-----------|----------------| 
|-----2-3---5---5-2-|-(2)---7---5-7---5-2-5-|-3-----------3--| 
|-2-----6-2-4---4-2-|-(2)---9-----6---4-2-4-|-2-----------1--| 
|-------------------|-------------9---------|----------------| 
|-------------------|-----------------------|----------------| 
|-----------4-4---2-|-(2)-------------------|----------------| 
 
 
  E  E E E   E   E   E   S S   E E E E +E  E E E   +E  E E E E   E E E 
|----------------------------|-------------------|---------------------| 
|-2----2-----2-------2-------|---5---------5---2-|-(2)---2---2-----2---| 
|-2----2-----2-------2-------|-2-----------4---2-|-(2)---2---2-----2---| 
|----------------------------|-------------------|---------------------| 
|-0--0---0-------0-----------|-------------------|---------------------| 
|------------------------0-2-|-5-----4-(4)-----2-|-(2)-2---2-0---0---0-| 
| 
| Q.     S S S S S S S S S S   Q   Q    E  E E E   +Q    E E S S E E E 
|----------------------------|-------------------|-------2-4-5---4-2---| 
|-2--------------2-3-2-------|-----2-------5---2-|-(2)-----0-9---0---5-| 
|-2----------2-4-------4-2---|-----2-------4---2-|-(2)---2---6-----2-1-| 
|--------2-4---------------4-|-2-----------------|-----------9---------| 
|----------------------------|-------------------|---------------------| 
|----------------------------|-------------------|---------------------| 
 
 
  E E E E E E E E    E  E E E   E E    E E 
|-----------------|------------------------| 
|-3---3---2---2---|--0----0-----2------3---| 
|-2---2---2---2---|--1----1-----2------4---| 
|-----------------|------------------------| 
|---------0-0-----|------------------------| 
|-2-2---2-------0-|--0--0---0-----0------0-| 
| 
| Q   Q   E E E E   +E  E E S S E S  S Q 
|-----------------|------------------------| 
|-3---3---2-3-5---|------------------------| 
|-----------------|------------------------| 
|-4---2---------6-|-(6)---6-----7------9---| 
|-----------------|------------------------| 
|-----------------|-----0---7-9---9-10-----| 
 
 
  E E S  S E Q  E E   +E  E E   E E   E E E 
|-------------------|------------------------| 
|-----2--3---5--5-2-|-(2)---2-----2-----2----| 
|---2----6-2-4--4-2-|-(2)---2-----2-----2----| 
|-------------------|------------------------| 
|-0-----------------|------------------------| 
|-----------------2-|-(2)-2-----2-0---0---0--| 
| 
| E E S  S E Q  E E    Q    S S E S S E E E 
|-------------------|-------7---5------------| 
|------------5----2-|-------7---5-7---5-2-5--| 
|-----6--7---4----2-|-------9-----6---4-2-4--| 
|---7---11-7--------|-------------9----------| 
|-------------------|------------------------| 
|-5----------4----2-|------------------------| 
 
 
  E E E E E E E E    E  E E E   E E    E E 
|-----------------|------------------------| 
|-3---3---2---2---|--0----0-----2------3---| 
|-2---2---2---2---|--1----1-----2------4---| 
|-----------------|--2---------------------| 
|-----------------|------------------------| 
|-2-2---2-0-0---0-|--0--0---0-----0------0-| 
| 
| Q   Q   E E E E   +Q    E S S E S  S Q 
|-----------------|------------------------| 
|-3-------2-3-5---|------------------------| 
|-2---------------|------------------------| 
|---------------6-|-(6)---6-----7------9---| 
|-----------------|------------------------| 
|-----------------|---------7-9---9-10-----| 
 
 
  E  E  E  E E  E  E  E    E  E  E E  E  E  E E 
|-2-----2----2-----2----|--1-----1----1-----1---| 
|-2-----2----2-----2----|--2-----2----2-----2---| 
|-2-----2----2-----2----|--1-----1----1-----1---| 
|-2-----2----2-----2----|-----------------------| 
|-4-----4----4-----4----|-----------------------| 
|-2--2-----2----2-----0-|--1--1----1-----1----1-| 
| 
| E  E  E  E E  E  E  E    E  E  Q    E  E  Q 
|-----------------------|-----------------------| 
|-----------------------|-----------------------| 
|------11---------11----|-----------------------| 
|---11----11---11----11-|----11-15--------------| 
|-9----------9----------|-------11------11-11---| 
|-----------------------|-13---------13---------| 
 
 
   E  E  E  E   E  E  E E   E E E E E E Q 
|--0-----0------0-----0---|----------------| 
|--2-----2------2-----2---|-2--------------| 
|--0-----0------0-----0---|-3-------4---6--| 
|--2-----2------2-----2---|-2---2---2------| 
|-------------------------|----------------| 
|--0--0-----0------0----0-|-2-2---2---2-6--| 
| 
|  E  E  E  E  +Q     Q     E E Q   Q   Q 
|-------------------------|----------------| 
|-------------------------|-----2---0---2--| 
|-------------------------|-----3---1---3--| 
|-------14-----------14---|---2------------| 
|----14--------------14---|----------------| 
|-12-------12-(12)--------|-2--------------| 
 
 
  E E E E E E E E   +E  E E E Q.    S S 
|-----------------|----------------------| 
|-----------------|----------------------| 
|-7---7---7---7---|-----7-7---7----------| 
|-7---7---7---7---|-----7-7---7----------| 
|-9---9---9---9---|-----9-9---9----------| 
|-7-7---7-7-7-7-0-|-(0)-----0-------0-2--| 
| 
| E E Q   E E Q      E  E Q   Q   E S S 
|-----------------|----------------------| 
|-----3-------3---|-----3----------------| 
|-----------------|-----2----------------| 
|---4-------4-----|----------------------| 
|-2-------2-------|----------------------| 
|-----------------|-----------------0-2--| 
 
 
  E E S S E Q  E E   +E  E E E E E E E   E E E E E E E E   +E  E E E Q.   S S 
|------------------|-------------------|-----------------|--------------------| 
|-----2-3---5--5-2-|-(2)---2---2---2---|-3---3---3---3---|-----3-3---3--------| 
|---2---6-2-4--4-2-|-(2)---2---2---2---|-2---2---2---2---|-----2-2---2--------| 
|------------------|-------------------|-----------------|--------------------| 
|-0----------------|-------------------|-2-2---2---2-----|--------------------| 
|-----------4----2-|-(2)-2---2-0-0---0-|---------------0-|-(0)-----0------0-2-| 
| 
| E E S S E Q  E E    Q    Q   E E Q     E E E E E E E E   +E  E E E Q.   S S 
|------------------|-------------------|-----------------|--------------------| 
|-----2-3---5----2-|-------2-------2---|-----3-------3---|-----3-----3--------| 
|---2---6-2-4----2-|-------2-------2---|-------2---------|-----2-----2--------| 
|------------------|-------------------|---4-------4-----|--------------------| 
|-0----------------|-------------------|-2-------2-------|--------------------| 
|-----------4--4-2-|-------------0-----|---------------0-|-(0)-----0------0-2-| 
 
 
  E E S S E Q  E E   +E  E E   E E   E E E   E E E E Q  Q 
|------------------|-----------------------|---------------| 
|-----2-3---5--5-2-|-(2)---2-----2-----2---|-3---3---3--3--| 
|---2---6-2-4--4-2-|-(2)---2-----2-----2---|-2---2---2--1--| 
|------------------|-----------------------|---------------| 
|-0----------------|-----------------------|---------------| 
|-----------4----2-|-(2)-2-----2-0---0---0-|-2-2---2-0--0--| 
| 
| Q   S S E Q  E E   +Q    S S E S S E E E   Q   Q   Q  Q 
|------------------|-------7---5-----------|---------------| 
|-----2-3---5----2-|-(2)---7---5-7---5-2-5-|-3----------3--| 
|-2-----6-2-4----2-|-(2)---9-----6---4-2-4-|-2----------1--| 
|------------------|-------------9---------|---------------| 
|------------------|-----------------------|---------------| 
|-----------4--4-2-|-(2)-------------------|---------------| 
 
 
  Q=60 
  S S S S S S S S s S E +Q 
|----------------------------*| 
|-------2-3-3-3---2-5-5-(5)--*| 
|-----2-----6-4-2------------*| 
|---2------------------------*| 
|-0--------------------------*| 
|----------------------------*| 
| 
| W 
|----------------------------*| 
|-2--------------------------*| 
|-2--------------------------*| 
|----------------------------*| 
|----------------------------*| 
|----------------------------*| 
 
 
 
 
less
plus
Add to Songbook Print Version How to play lesson Submit videolesson
Click the best TAGS for this song:
None of them
Contributor: Arkusunr Correct

If you can not find the chords or tabs you want, look at our partner E-chords. If you are a premium member, you have total access to our video lessons.

If you find a wrong Bad To Me from Eric Clapton, click the correct button above.

login/signup
my songbooks
my recent views
my submits