Eric Clapton

Wonderfull Tonight tab

Eric Clapton

tools Ultimate Tabs

Start AutoScroll Font Size Down Font Size Up

Find us on Facebook

chords
tabs
bass
ukulele
keyboards
drums
flute
harmonica
guitar pro
video
Ultimate-Tabs

Wonderfull Tonight

                              Wonderfull Tonight                                 

First play "A" two times, then "B" one time, "A" one time and then "B". 
                                                                   Clapton, Eric 




     A                                                                   
     Q    Q    Q    Q       Q    Q    Q    Q       Q    Q    Q    Q      
E||-------3--------------|--3-------------------|-------3--------------| 
B||------------5---------|-------5---------5----|------------3---------| 
G||--5--------------5----|------------5---------|--4--------------4----| 
D||----------------------|----------------------|----------------------| 
A||----------------------|----------------------|----------------------| 
E||----------------------|----------------------|----------------------| 


  Q    Q    Q    Q       Q    Q    Q    Q       Q    Q    Q    Q      
--3--------------3----|-------1--------------|--1-------------------| 
-------3--------------|------------1---------|-------1---------1----| 
------------4---------|--2--------------2----|------------2---------| 
----------------------|----------------------|----------------------| 
----------------------|----------------------|----------------------| 
----------------------|----------------------|----------------------| 


  Q    Q    Q    Q       Q    Q    Q    Q       Q    Q    Q    Q      
-------3--------------|--3--------------3----|-------3--------------| 
------------3---------|-------3--------------|------------5---------| 
--4--------------4----|------------4---------|--5--------------5----| 
----------------------|----------------------|----------------------| 
----------------------|----------------------|----------------------| 
----------------------|----------------------|----------------------| 


  Q    Q    Q    Q       Q    Q    Q    Q       Q    Q    Q    Q      
--3-------------------|-------3--------------|--3--------------3----| 
-------5---------5----|------------3---------|-------3--------------| 
------------5---------|--4--------------4----|------------4---------| 
----------------------|----------------------|----------------------| 
----------------------|----------------------|----------------------| 
----------------------|----------------------|----------------------| 


  Q    Q    Q    Q       Q    Q    Q    Q       Q    Q    Q    Q      
-------1--------------|--1-------------------|-------3--------------| 
------------1---------|-------1---------1----|------------3---------| 
--2--------------2----|------------2---------|--4--------------4----| 
----------------------|----------------------|----------------------| 
----------------------|----------------------|----------------------| 
----------------------|----------------------|----------------------| 


  Q    Q    Q    Q       Q    Q    Q    Q       Q    Q    Q    Q      
--3--------------3----|-------1--------------|--1-------------------| 
-------3--------------|------------1---------|-------1---------1----| 
------------4---------|--2--------------2----|------------2---------| 
----------------------|----------------------|----------------------| 
----------------------|----------------------|----------------------| 
----------------------|----------------------|----------------------| 


  Q    Q    Q    Q       Q    Q    Q    Q       Q    Q    Q    Q      
-------3--------------|--3-------------------|-------3--------------| 
------------3---------|-------3---------3----|------------5---------| 
--4--------------4----|------------4---------|--5--------------5----| 
----------------------|----------------------|----------------------| 
----------------------|----------------------|----------------------| 
----------------------|----------------------|----------------------| 


  Q    Q    Q    Q       Q    Q    Q    Q       Q    Q    Q    Q      
--3-------------------|-------5--------------|--5-------------------| 
-------5---------5----|------------5---------|-------5---------5----| 
------------5---------|--5--------------5----|------------5---------| 
----------------------|----------------------|----------------------| 
----------------------|----------------------|----------------------| 
----------------------|----------------------|----------------------| 


  Q    Q    Q    Q       Q    Q    Q    Q       Q    Q    Q    Q      
-------1--------------|--1-------------------|-------3--------------| 
------------1---------|-------1---------1----|------------3---------| 
--2--------------2----|------------2---------|--4--------------4----| 
----------------------|----------------------|----------------------| 
----------------------|----------------------|----------------------| 
----------------------|----------------------|----------------------| 


  Q    Q    Q    Q       Q    Q    Q    Q       Q    Q    Q    Q      
--3--------------3----|-------3--------------|--3-------------------| 
-------3--------------|------------5---------|-------5---------5----| 
------------4---------|--5--------------5----|------------5---------| 
----------------------|----------------------|----------------------| 
----------------------|----------------------|----------------------| 
----------------------|----------------------|----------------------| 


                                               B                     
  Q    Q    Q    Q       H        Q    Q       Q    Q    Q    Q      
-------3---------3----|--L------------------|-------1--------------| 
-------3---------3----|--L------------------|------------1---------| 
-------5---------5----|--L------------------|--2--------------2----| 
----------------------|---------------------|----------------------| 
----------------------|---------------------|----------------------| 
----------------------|---------------------|----------------------| 


  Q    Q    Q    Q       Q    Q    Q    Q       Q    Q    Q    Q      
--1-------------------|-------3--------------|--3-------------------| 
-------1---------1----|------------3---------|-------3---------3----| 
------------2---------|--4--------------4----|------------4---------| 
----------------------|----------------------|----------------------| 
----------------------|----------------------|----------------------| 
----------------------|----------------------|----------------------| 


  Q    Q    Q    Q       Q    Q    Q    Q       Q    Q    Q    Q      
-------3--------------|--3-------------------|-------5--------------| 
------------5---------|-------5---------5----|------------5---------| 
--5--------------5----|------------5---------|--5--------------5----| 
----------------------|----------------------|----------------------| 
----------------------|----------------------|----------------------| 
----------------------|----------------------|----------------------| 


  Q    Q    Q    Q       Q    Q    Q    Q       Q    Q    Q    Q      
--5-------------------|-------1--------------|--1-------------------| 
-------5---------5----|------------1---------|-------1---------1----| 
------------5---------|--2--------------2----|------------2---------| 
----------------------|----------------------|----------------------| 
----------------------|----------------------|----------------------| 
----------------------|----------------------|----------------------| 


  Q    Q    Q    Q       Q    Q    Q    Q       Q    Q    Q    Q      
-------3--------------|--3-------------------|-------1--------------| 
------------3---------|-------3---------3----|------------1---------| 
--4--------------4----|------------4---------|--2--------------2----| 
----------------------|----------------------|----------------------| 
----------------------|----------------------|----------------------| 
----------------------|----------------------|----------------------| 


  Q    Q    Q    Q       H.           Q       W                  
--1-------------------|--3-----------------|-------------------| 
-------1---------1----|--3-----------------|-------------------| 
------------2---------|--4-----------------|-------------------| 
----------------------|--------------------|-------------------| 
----------------------|--------------------|-------------------| 
----------------------|--------------------|-------------------| 


  W                   W                   Q    Q    Q    Q      
-------------------|-------------------|-------3--------------| 
-------------------|-------------------|------------5---------| 
-------------------|-------------------|--5--------------5----| 
-------------------|-------------------|----------------------| 
-------------------|-------------------|----------------------| 
-------------------|-------------------|----------------------| 


  Q    Q    Q    Q       W                   
--3-------------------|--3----------------|| 
-------5---------5----|--5----------------|| 
------------5---------|--5----------------|| 
----------------------|-------------------|| 
----------------------|-------------------|| 
----------------------|-------------------|| 
 
less
plus
Add to Songbook Print Version How to play lesson Submit videolesson
Click the best TAGS for this song:
None of them
Contributor: 0110dani Correct

If you can not find the chords or tabs you want, look at our partner E-chords. If you are a premium member, you have total access to our video lessons.

If you find a wrong Bad To Me from Eric Clapton, click the correct button above.

login/signup
my songbooks
my recent views
my submits