Evanescence

Bring Me To Life (ver. 3) bass

Evanescence

tools Ultimate Tabs

Start AutoScroll Font Size Down Font Size Up

Find us on Facebook

chords
tabs
bass
ukulele
keyboards
drums
flute
harmonica
guitar pro
video
Ultimate-Tabs

Bring Me To Life (ver. 3)




INTO

G|---------------------------
D|---------------------------
A|---------------------------
D|-0******------0****--0****-

MAIN (VERSE) RIF
G|-------------------------------------------------------------------------|
D|-------------------------------------------------------------------------|
A|-------------------------------------------------------------------------| X2
D|22-22-22-22--2222---22-22-22-2--222---22-22-22-22--2222---22-22-22-2--222|

CHORUS
G|------------------------------------|
D|--2--------5--------0---------------|
A|------------------------------------|X2
D|2--2-2-2-5--5-5-5-0--0-0-0--2-4-5-9-|

verse

chorus

AFTER 2nd chorus (rif 2)
G|-----------------------------------------------|
D|-----------------------------------------------|
A|-3----5----------------------------------------|
D|-----------22-22-22-22--2222---22-22-22-2--222-|

G|-----------------------------------------------|
D|-----------------------------------------------|
A|-3----5----------------------------------------|
D|-----------22-22-22-22--222----2-4-5-9---------|

FROZEN INSIDE PART
G|----------------------|
D|----------------------|X2
A|--3-------------------|
D|-----2--0----2-4-5-9--|

verse

rif 2

SOME TIMES THE |2-4-5-9-| part is not played
 
less
plus
Add to Songbook Print Version How to play lesson Submit videolesson
Click the best TAGS for this song:
None of them
Contributor: profblaz Correct

If you can not find the chords or tabs you want, look at our partner E-chords. If you are a premium member, you have total access to our video lessons.

If you find a wrong Bad To Me from Evanescence, click the correct button above.

login/signup
my songbooks
my recent views
my submits