S Evanescence

Bring Me To Life bass

Evanescence

Album:Anywhere But Home - CD + DVD

Year:2004

tools Ultimate Tabs

Start AutoScroll Font Size Down Font Size Up

Find us on Facebook

chords tabs
bass
ukulele keyboards drums
flute
harmonica
guitar pro
video
Ultimate-Tabs

Bring Me To Life

Tabed: Splitworld splitworld.net


Verse
G:|----------------------------------------|
D:|----------------------------------------|
A:|----------------------------------------|
D:|-0-2-2-2-0-2-2-22-2222------------------|

Chorus
G:|----------------------------------------|
D:|---2--2------5--5-----0-0--0----2--2----|
A:|----------------------------------------|
D:|-22-22-22--55-55-55-00-0-00-0-22--2-222-|

Verse 2 (EXTRA NOTE) follow the guitar
G:|----------------------------------------|
D:|----------------------------------------|
A:|---------------------3------------------|
D:|-0-2-2-2-0-2-2-22-222-------------------|

Interlude				End
G:|-----------------------------|----------|
D:|-----------------------------|----------|
A:|-33--55----------------------|-------2--|
D:|--------0-2-2-2-2-222-222-22-|-2-4-5----|

Interlude
G:|------2---------------------|-----------|
D:|-----2--4-4-4-------------4-|-----------|
A:|-2-24----4---42----0----24--|--------2--|
D:|---------------------------2|-2-4-5-----|

Verse 2
G:|----------------------------------------|
D:|--2----------5-----------------2---2----|
A:|------------------------------------42--|
D:|-2-2-22-2-5-5-55-5-5-----12/2-2-222---42|

Ending Sequence
G:|----------------------------------------|
D:|----------------------------------------|
A:|-3-33----5-55---------------------------|
D:|----------0--0--02-2222-4444-5555-2222--|

Bring Me to life, I've been living a lie...
G:|----------------------------------------|
D:|----------------------------------------|
A:|-3-3-33---55--5-------------------------|
D:|--0-0--0----00-0--2---------------------|


If You have any Questions just Email me at [email protected]
less
plus
Add to Songbook Print Version How to play lesson Submit videolesson
Click the best TAGS for this song:
None of them
Contributor: Screwwf1 Correct

If you can not find the chords or tabs you want, look at our partner E-chords. If you are a premium member, you have total access to our video lessons.

If you find a wrong Bad To Me from Evanescence, click the correct button above.

login/signup
my songbooks
my recent views
my submits