Fall of the Bastards

The Path Of The Moon God tab

Fall of the Bastards

tools Ultimate Tabs

Start AutoScroll Font Size Down Font Size Up

Find us on Facebook

chords
tabs
bass
ukulele
keyboards
drums
flute
harmonica
guitar pro
video
Ultimate-Tabs

The Path Of The Moon God

If I have only put one guitar part it is because I am unsure of what the other guitar is doing.

    e|-------------------------------------|
    b|----3--------------------------------|
GTR G|-------2-----------------------------|
 1  D|-0--------0-0------7-8------7---5----|
    A|-0----------0------7-8------7---5--3-|
    D|-0----------0------7-8------7---5--3-|
                                         *

    e|-------------------------------------|
    b|-------------------------------------|
GTR G|-7----------7------------------------|
 2  D|-7----------7------7-8------7---5----|
    A|-5----------5------7-8------7---5--3-|
    D|-------------------7-8------7---5--3-|
                                         *

    e|-------------------------------------|
    b|----3--------------------------------|
GTR G|-------2-----------------------------|
 1  D|-0--------0-0------7-8------7---5----|
    A|-0----------0------7-8------7---5--3-|
    D|-0----------0------7-8------7---5--3-|
                                         *

    e|-----------------------------------------|
    b|-----------------------------------------|
GTR G|-----------------------------10---9--7-9-|
 2  D|-0----------------------8PH--------------|
    A|-0---------------------------------------|
    D|-0---7BD-------------8-------------------|

    e|-------------------------------------------|
    b|-------------------------------------------|
GTR G|-------------------------------------------|
 1  D|-0---------0-----------7-----------8-------| x2
    A|-0---------0-----------7-----------8-------|
    D|-0---------0-----------7-----------8-------|

    e|-------------------------------------------|
    b|---------------8---------------------------|
GTR G|-10--9-7h9-10-----9/7-----10/9/10-----7--9-|
 2  D|-----------------------7-----------8-------| x2
    A|-------------------------------------------|
    D|-------------------------------------------|

    e|------------------------------------------|
    b|------------------------------------------|
GTR G|------------------------------------------|
 1  D|-8---------------------7------------5--7--|
    A|-8---------------------7------------5--7--|
    D|-8---------------------7------------5--7--|

    e|------------------------------------------|
    b|-----------8------------------------------|
GTR G|-10--9-7h9----10-9-----9-10-9-----7--10/9-|
 2  D|--------------------7----------8----------|
    A|------------------------------------------|
    D|------------------------------------------|

    e|----------------------------------|
    b|----------------------------------|
GTR G|----------------------------------|
 1  D|-8-------------------11---12--14--| 
    A|-8-------------------11---12--14--|
    D|-8-------------------11---12--14--|

    e|-------------------------------------|
    b|-----------8-------------------------|
GTR G|-10--9--7-----10--9--6--7--9--7--6h7-|
 2  D|-------------------------------------| 
    A|-------------------------------------|
    D|-------------------------------------|

    e|---------------------------------------|
    b|---------------------------------------|
GTR G|---------------------------------------|
 1  D|-0---------0-----------7-----------8---| 
    A|-0---------0-----------7-----------8---|
    D|-0---------0-----------7-----------8---|

    e|---------------------------------------|
    b|-----------8---------------------------|
GTR G|-10--9-7h9----10-9-----9-10-9-----7--9-|
 2  D|--------------------7----------8-------|
    A|---------------------------------------|
    D|---------------------------------------|

    e|------------------------------------------|
    b|------------------------------------------|
GTR G|------------------------------------------|
 1  D|-8---------------------7------------5--7--|
    A|-8---------------------7------------5--7--|
    D|-8---------------------7------------5--7--|

    e|---------------------------------------------------|
    b|------------8----------------------------8----8-10-|
GTR G|-10--9-7h9-----10--9---------7-9-10-9-10---10------|
 2  D|----------------------7-8-10-----------------------|
    A|---------------------------------------------------|
    D|---------------------------------------------------|
                            * * *  * * *  * *  *  * * *

    e|----------------------------------|
    b|----------------------------------|
GTR G|----------------------------------|
 1  D|-8-------------------11---12--14--| 
    A|-8-------------------11---12--14--|
    D|-8-------------------11---12--14--|

    e|---------------------------------------|
    b|-------------8-------------------------|
GTR G|-10--9--7h9-----10--9--6--7--9--7--6h7-|
 2  D|---------------------------------------|
    A|---------------------------------------|
    D|---------------------------------------|

Repeat last 4 sections, but with tremelo picking, with this as a variation on the third time...

    e|---------------------------------------------------------|
    b|------------------------88--------------------------8h10-|
GTR G|-10101010-99-77-99-1010----1010-----9-10-9-7-9-10p9------|
 2  D|---------------------------------7-----------------------|
    A|---------------------------------------------------------|
    D|---------------------------------------------------------|

    e|----------------------|
    b|-13--12--10-8-10-12PH-|
GTR G|----------------------|
 1  D|----------------------|
    A|----------------------|
    D|----------------------|

    e|-------------------|
    b|-------------------|
GTR G|-10--9--7--5-7-9PH-|
 2  D|-------------------|
    A|-------------------|
    D|-------------------|

    e|-------------------------------------------------------------------|
    b|-------------------------------------------------------------------|
GTR G|---------777-555-------------------777-555-------------------------| 1,3
1+2 D|-----777---------8888-1010-888-777---------666-555-----------------|
    A|-555-----------------------------------------------66666-8-666-555-|
    D|-------------------------------------------------------------------|

    e|--------------------------------------------------------------|
    b|--------------------------------------------------------------|
GTR G|-----777-888-777-7777-5-777777-----777-888-777-777777-333-222-|
1+2 D|--------------------------------------------------------------| 2
    A|-666---------------------------666----------------------------|
    D|--------------------------------------------------------------|

    e|----------------------------------------------------------------------|
    b|----------------------------------------------------------------------|
GTR G|-555-777-888-777--------------555-777-888-777-------------------------|
1+2 D|----------------------------------------------3-3-3-3-3-3-2-2-2-2-2-2-| 4
    A|-----------------555555555555-----------------1-1-1-1-1-1-0-0-0-0-0-0-|
    D|----------------------------------------------------------------------|
                                    *** *** *** *** * * * * * * * * * * * *

    e|-------------------------------------------------|
    b|-------------------------------------------------|
GTR G|-------------------------------------------------|
1+2 D|-0--0-----0-0-0--0-----0-0-0--0-----0-0-0--6--1--|
    A|-0--0-----0-0-0--0-----0-0-0--0-----0-0-0--6--1--|
    D|-0--0--6--0-0-0--0--6--0-0-0--0--6--0-0-0--6--1--|

    e|-------------------------------------------------|
    b|-------------------------------------------------|
GTR G|-------------------------------------------------|
1+2 D|-0--0-----0-0-0--0-----0-0-0--0-----0-0-0--6--1--| x3
    A|-0--0-----0-0-0--0-----0-0-0--0-----0-0-0--6--1--|
    D|-0--0--1--0-0-0--0--6--0-0-0--0--1--0-0-0--6--1--|

    e|--------------------------------------------------|
    b|--------------------------------------------------|
GTR G|--------------------------------------------------|
1+2 D|-7-7-7-8--7-3-7-7-7-8--7-5-7-7-7-8--7-5-7--11--8--|
    A|-5-5-5-6--5-3-5-5-5-6--5-3-5-5-5-6--5-3-5--9---6--|
    D|--------------------------------------------------|

    e|-------------------------------------------------|
    b|-------------------------------------------------|
GTR G|-------------------------------------------------|
1+2 D|-0--0-----0-0-0--0-----0-0-0--0-----0-0-0--6--1--| x2
    A|-0--0-----0-0-0--0-----0-0-0--0-----0-0-0--6--1--|
    D|-0--0--1--0-0-0--0--6--0-0-0--0--1--0-0-0--6--1--|

    e|-------------------------------------------------|
    b|-------------------------------------------------|
GTR G|-------------------------------------------------|
1+2 D|-0--0-----0-0-0--0-----0-0-0--0-----0-0-0--6--1--| x2
    A|-0--0--6--0-0-0--0--6--0-0-0--0--6--0-0-0--6--1--|
    D|-0--0-----0-0-0--0-----0-0-0--0-----0-0-0--6--1--|

    e|--------------------------------------------------------------------------------------|
    b|--------------------------------------------------------------------------------------|
GTR G|-777-99-10---------777-99-10---------777-999-10---------9h10---10p9---12-10-9-10-9----|
 1  D|-----------888-888-----------777-777------------888-888------0------0--------------12-| x2
    A|--------------------------------------------------------------------------------------|
    D|--------------------------------------------------------------------------------------|
                                                                   *      *

    e|-------------------------------------------------------------------------------------------------|
    b|-------------------------------------------------------------------------------------------------|
GTR G|----------------------------------------------------------------------9h10---10p9---12-10-9-10PH-|
 2  D|-888-1010-12--------------888-1010-12--------888-1010-12-------------------0------0--------------| x2
    A|-------------101010101010-------------888888-------------101010101010----------------------------|
    D|-------------------------------------------------------------------------------------------------|
                                                                                 *      *

    e|---------------------------------------------------|
    b|---------------------------------------------------|
GTR G|-101010-9-7----777-9-10-9-101010101010-1212-10-999-|
1+2 D|------------10-------------------------------------| x2
    A|---------------------------------------------------|
    D|---------------------------------------------------|

    e|-------------------------------------------|
    b|---------------------------------8---------|
GTR G|-10----9--7--9----7-9-10--9--10-----10--9--|
 1  D|-------------------------------------------|
    A|-------------------------------------------|
    D|-------------------------------------------|

    e|-------------------------------------------------------|
    b|---------------------------------------------8---------|
GTR G|-10--10-9------9--7--9--10--9--10-10-9-10-9-----10--9--|
 1  D|-----------10------------------------------------------|
    A|-------------------------------------------------------|
    D|-------------------------------------------------------|

    e|----------------------------------------|
    b|-6---5--------5--6-5--6--5-6-5-8--6--5/-|
GTR G|-------7-5-7----------------------------|
 1  D|----------------------------------------| x2
    A|----------------------------------------|
    D|----------------------------------------|

    e|------------------------------------------------------------------------------------|
    b|------------------------------------------------------------------------------------|
GTR G|-101010101010-99------99-77777-99-77-99-1010101010-99-1010-99-12121212-1010-9999999-|
1+2 D|-----------------1010---------------------------------------------------------------|
    A|------------------------------------------------------------------------------------|
    D|------------------------------------------------------------------------------------|

    e|-----------------------------------------------------------------------------------------|
    b|--------------------------------------------------------------15151515-1313-121212121212-|
GTR G|-101010101010-99------99-77777-99-77-99-1010101010-99-1010-99----------------------------|
1+2 D|-----------------1010--------------------------------------------------------------------|
    A|-----------------------------------------------------------------------------------------|
    D|-----------------------------------------------------------------------------------------|

    e|---------------------------------------------------|
    b|---------------------------------------------------|
GTR G|-10--9------9--7--9--7--9--10--9--10--9--12--10--9-|
1+2 D|--------10-----------------------------------------| 
    A|---------------------------------------------------|
    D|---------------------------------------------------|

    e|--------------------------------------------------|
    b|--------------------------------------------------|
GTR G|-10--9-10-9--7--9--10--9--10--9--10--9--12--10--9-|
1+2 D|--------------------------------------------------| 
    A|--------------------------------------------------|
    D|--------------------------------------------------|

    e|--------------------------------------------------------------------------------|
    b|--------------------------------------------------------------------------------|
GTR G|-10-9---------10h12-10p12-10p9--------9h10-9h10-9-------------------------------|
 1  D|------10-0---------------------10--10-------------10-8----8-10-8-7------8---7---|
    A|---------0----------------------------------------------------------------------|
    D|---------0----------------------------------------------------------------------|

    e|------------------------------------------------------------------------------|
    b|------------------------------------------------------------------------------|
GTR G|------------------------------------------------------------------------------|
 2  D|-10-9----0---------------------10--------------------8---------7------8---7---|
    A|------10-0---------------------10--------------------8---------7------8---7---|
    D|---------0---------------------10--------------------8---------7------8---7---|

    e|------------------------------------------------------------------------------------------------------|
    b|------------------------------------------------------------------------------------------------------|
GTR G|-10--9-------------10--9--10--12--10--9---------9--10--9--10--9---------------------------------------|
 1  D|--------10-12----------------------------10----------------------10--8---8/10/8-7-7-7-7-7-7--8--7--3--|
    A|--------------------------------------------------------------------------------7-7-7-7-7-7--8--7--3--|
    D|--------------------------------------------------------------------------------7-7-7-7-7-7--8--7--3--|

    e|-------------------------------------------------------------------------------------------------------|
    b|-------------------------------------------------------------------------------------------------------|
GTR G|-------------------------------------------------------------------------------------------------------|
 2  D|---------------------------------------------------------------------------8/10/8-7-7-7-7-7-7-8--7--3--|
    A|-0-0-0-0-0-0-0-0-0-0-0-0-10-10-10-10-10-10-10-10-10-10-10-10-8-8-8-8-8-8-8-8/10/8-7-7-7-7-7-7-8--7--3--|
    D|-0-0-0-0-0-0-0-0-0-0-0-0-10-10-10-10-10-10-10-10-10-10-10-10-8-8-8-8-8-8-8-8/10/8-7-7-7-7-7-7-8--7--3--|
         * *   * *   * *   * *    *  *     *  *     *  *     *  *    * *   * *  

Play this section ^^^ x3

    e|-------------------------------------------------------------|
    b|-------------------------------------------------------------|
GTR G|-7-7-7-8-7----7-7-7-8-7----7-7-7-8-7----11--11--11--8--8--8--|
 1  D|-----------10-----------10-----------10----------------------| x2
    A|----------------------------------------9---9---9---6--6--6--|
    D|-------------------------------------------------------------|

    e|---------------------------------------------------------|
    b|---------------------------------------------------------|
GTR G|-9-------------------------------------------------------|
 1  D|-0--0-0----0-0-0--0-0----0-0-0--0-0----0--4--4--1--1--1--|
    A|-0--0-0----0-0-0--0-0----0-0-0--0-0----0--4--4--1--1--1--|
    D|-0--0-0-1--0-0-0--0-0-1--0-0-0--0-0-1--0--4--4--1--1--1--|

    e|-------------------------------------------------------------|
    b|-------------------------------------------------------------|
GTR G|-------------------------------------------------------------|
 1  D|-0--0-0----0-0-0--0-0----0-0-0--0-0----0--4--4--1--1--1--|
    A|-0--0-0----0-0-0--0-0----0-0-0--0-0----0--4--4--1--1--1--|
    D|-0--0-0-1--0-0-0--0-0-1--0-0-0--0-0-1--0--4--4--1--1--1--|

e|------------------------------------------------------------------------------------------------------------|
b|------------------------------------------------------------------------------------------------------------|
G|------------------------------------------------------------------------------------------------------------|
D|------------------------------------------------------------------------------------------------------------|
A|-0--0-0-0--0-0-0--0-0-0--0-0-3--3-3-3--3-3-3--3-3-3--3-3-8--8-8-8--8-8-8--8-8-8/10/8-7--7-7-7--7-7-8--7--3--|
D|-0--0-0-0--0-0-0--0-0-0--0-0-3--3-3-3--3-3-3--3-3-3--3-3-8--8-8-8--8-8-8--8-8-8/10/8-7--7-7-7--7-7-8--7--3--|
      * *    * *    * *    * *    * *    * *    * *    * *    * *    * *    * *           * *    * * 

Guitar 1+2 x2 ^^^

    e|---------------------------------------------------------------------------------------------------|
    b|---------------------------------------------------------------------------------------13--11--10--|
GTR G|-10---9--10-9-7---9--10-9-10---9--10-9-12--10--9---10--9-10-9-7---9--10-9-10---9--10-9-------------|
 1  D|---------------------------------------------------------------------------------------------------|
    A|---------------------------------------------------------------------------------------------------|
    D|---------------------------------------------------------------------------------------------------|

Gtr 2

e|------------------------------------------------------------------------------------------------------------|
b|------------------------------------------------------------------------------------------------------------|
G|------------------------------------------------------------------------------------------------------------|
D|------------------------------------------------------------------------------------------------------------|
A|-0--0-0-0--0-0-0--0-0-0--0-0-3--3-3-3--3-3-3--3-3-3--3-3-8--8-8-8--8-8-8--8-8-8/10/8-7--7-7-7--7-7-8--7--3--|
D|-0--0-0-0--0-0-0--0-0-0--0-0-3--3-3-3--3-3-3--3-3-3--3-3-8--8-8-8--8-8-8--8-8-8/10/8-7--7-7-7--7-7-8--7--3--|
      * *    * *    * *    * *    * *    * *    * *    * *    * *    * *    * *           * *    * * 

    e|-------------------------------------------15-------------------------------------------------15--------|
    b|-18--17--18-17-15--17--18-17-18--17--18-17----18-17--18--17-18-17-15--17--18-17-18--17--18-17----18--17-|
GTR G|--------------------------------------------------------------------------------------------------------|
 1  D|--------------------------------------------------------------------------------------------------------|
    A|--------------------------------------------------------------------------------------------------------|
    D|--------------------------------------------------------------------------------------------------------|

Gtr 2

e|------------------------------------------------------------------------------------------------------------|
b|------------------------------------------------------------------------------------------------------------|
G|------------------------------------------------------------------------------------------------------------|
D|------------------------------------------------------------------------------------------------------------|
A|-0--0-0-0--0-0-0--0-0-0--0-0-3--3-3-3--3-3-3--3-3-3--3-3-8--8-8-8--8-8-8--8-8-8/10/8-7--7-7-7--7-7-8--7--3--|
D|-0--0-0-0--0-0-0--0-0-0--0-0-3--3-3-3--3-3-3--3-3-3--3-3-8--8-8-8--8-8-8--8-8-8/10/8-7--7-7-7--7-7-8--7--3--|
      * *    * *    * *    * *    * *    * *    * *    * *    * *    * *    * *           * *    * * 

    e|---------------------------------------------------------------------------------------------------|
    b|---------------------------------------------------------------------------------------13--11--10--|
GTR G|-10---9--10-9-7---9--10-9-10---9--10-9-12--10--9---10--9-10-9-7---9--10-9-10---9--10-9-------------|
 1  D|---------------------------------------------------------------------------------------------------| x2
    A|---------------------------------------------------------------------------------------------------|
    D|---------------------------------------------------------------------------------------------------|

    e|-----------------------------------------------------------------------------------------------|
    b|-----------------------------------------------------------------------------------------------|
GTR G|-10---9----9------10--9-9-10---9--10-9-12--10--9-10--9----9-------10-9-10---9--10-9-12--10--9--|
 1  D|--------10---12----------------------------------------10---12-12------------------------------|
    A|-----------------------------------------------------------------------------------------------|
    D|-----------------------------------------------------------------------------------------------|

    e|--------------------------------------------------------------------|
    b|-10---8-------------------------------------------------------------|
GTR G|---------7----9--10---10-10-10--9--10--9----------------------------|
 1  D|------------------------------------------12--12--12--12--12--------|
    A|--------------------------------------------------------------------|
    D|--------------------------------------------------------------------|

    e|---------------------------------------------------------------------------------------------|
    b|-10---10---10--10----------------------------------10--10--10--10----------------------------|
GTR G|------------------7--9--10---9--10--9tr10-9--9tr10----------------7--9--10--9tr10-12--10--9--|
 1  D|---------------------------------------------------------------------------------------------|
    A|---------------------------------------------------------------------------------------------|
    D|---------------------------------------------------------------------------------------------|

    e|--------------------------------------------------------------------|
    b|-10---8-------------------------------------------------------------|
GTR G|---------7----9--10---10-10-10--9--10--9----------------------------|
 1  D|------------------------------------------12--12--12--12--12--------|
    A|--------------------------------------------------------------------|
    D|--------------------------------------------------------------------|

    e|--------------|
    b|--------------|
GTR G|-7-(Let ring)-|
 1  D|--------------|
    A|--------------|
    D|--------------|

    e|--------------|
    b|--------------|
GTR G|--------------|
 1  D|-0------------|
    A|-0-(Let ring)-|
    D|-0------------|
less
plus
Add to Songbook Print Version How to play lesson Submit videolesson
Click the best TAGS for this song:
None of them
Contributor: Anonymous Correct

If you can not find the chords or tabs you want, look at our partner E-chords. If you are a premium member, you have total access to our video lessons.

If you find a wrong Bad To Me from Fall of the Bastards, click the correct button above.

login/signup
my songbooks
my recent views
my submits