tools Ultimate Tabs

Start AutoScroll Font Size Down Font Size Up

Find us on Facebook

chords
tabs
bass
ukulele keyboards
drums
flute
harmonica
guitar pro
video
Ultimate-Tabs

Hero

INTRO 
 C                C                C                C 
|----------------|----------------|----------------|----------------| 
|----------1-----|----------1-----|----------1-----|----------------| 
|------0-------0-|------0-------0-|------0-------0-|----------------| 
|----2------(2)--|----2------(2)--|----2------(2)--|----2-----------| 
|3-------3-------|3-------3-------|3-------3-------|3-------3~------| 
|----------------|----------------|----------------|----------------| 

 C                C                C                C 
|----------------|0---------------|----------------|0---------------| 
|----------1-----|----------1-----|----------1-----|----------1-----| 
|------0-------0-|------0-------0-|------0-------0-|------0-------0-| 
|----2-------2---|----2-------2---|----2-------2---|----2-------2---| 
|3-------3-------|3-------3-------|3-------3-------|3-------3-------| 
|----------------|----------------|----------------|----------------| 

 Am               Em               Em               Em 
|----------------|----------------|----------------|----------------| 
|----------1-----|----------------|0---------------|0---------------| 
|------2-------2-|----------0-----|----------0-----|----------0-----| 
|----2-------2---|------2-------2-|------2-------2-|------2-------2-| 
|0-------0-------|----2-------2---|----2-------2---|----2-------2---| 
|----------------|0-------0-------|0-------0-------|0-------0-------| 

 F                F                C                G 
|----------------|----------------|----------------|----------------| 
|----------------|1---------------|----------1-----|----------3-----| 
|----------2-----|----------2-----|----0-----------|----0---------0-| 
|----3---------3-|------3-------3-|------2-------2-|------0---------| 
|------3-----3---|----3-------3---|3-------3-------|----------------| 
|1-------1-------|1-------1-------|----------------|3-------3-------| 

 G 
|----------------| 
|----------3-----| 
|----0---------0-| 
|------0---------| 
|----------------| 
|3-------3-------| 

VERSE 1 

 C                C                C                C 
|----------------|----------------|----------------|0---------------| 
|----------1-----|----------1-----|----------1-----|----------1-----| 
|------0-------0-|------0-------0-|------0-------0-|------0-------0-| 
|----2-------2---|----2-------2---|----2-------2---|----2-------2---| 
|3-------3-------|3-------3-------|3-------3-------|3-------3-------| 
|----------------|----------------|----------------|----------------| 

 Am               Em               Em               Em 
|----------------|----------------|----------------|----------------| 
|----------1-----|----------------|----------------|------------0---| 
|------2-------2-|----------0-----|----------0-----|0-----0---------| 
|----2-------2---|------2-------2-|------2-------2-|----2-----2-----| 
|0-------0-------|----2-------2---|----2-------2---|--2-----2-------| 
|----------------|0-------0-------|0-------0-------|--------------0-| 
  
 F                F                C                G 
|----------------|----------------|----------------|----------------| 
|----------------|1---------------|----------1-----|----------3-----| 
|----------2-----|----------2-----|----0-----------|----0---------0-| 
|----3---------3-|------3-------3-|------2-------2-|------0---------| 
|------3-----3---|----3-------3---|3-------3-------|----------------| 
|1-------1-------|1-------1-------|----------------|3-------3-------| 

 G 
|----------------| 
|----------3-----| 
|----0---------0-| 
|------0---------| 
|----------------| 
|3-------3-------| 

VERSE 2 
  
 C                C                C                C 
|----------------|0---------------|----------------|0---------------| 
|----------1-----|----------1-----|----------1-----|----------1-----| 
|------0-------0-|------0-------0-|------0-------0-|------0-------0-| 
|----2-------2---|----2-------2---|----2-------2---|----2-------2---| 
|3-------3-------|3-------3-------|3-------3-------|3-------3-------| 
|----------------|----------------|----------------|----------------| 

 Am               Em               Em               Em 
|----------------|----------------|----------------|----------------| 
|----------1-----|----------------|----------------|0---------------| 
|------2-------2-|----------0-----|----------0-----|----------0-----| 
|----2-------2---|------2-------2-|------2-------2-|------2-------2-| 
|0-------0-------|----2-------2---|----2-------2---|----2-------2---| 
|----------------|0-------0-------|0-------0-------|0-------0-------| 

 F                F                C                G 
|----------------|----------------|----------------|----------------| 
|----------------|1---------------|----------1-----|----------3-----| 
|----------2-----|----------2-----|----0-----------|------0-------0-| 
|----3---------3-|------3-------3-|------2-------2-|----0-------0---| 
|------3-----3---|----3-------3---|3-------3-------|----------------| 
|1-------1-------|1-------1-------|----------------|3-------3-------| 

 G                G                G 
|----------------|----------------|------0---------| 
|----------3-----|------3-------3-|------3-----3---| 
|------0-------0-|--0---------0---|----0-----0-----| 
|----0-------0---|----------0-----|--0-------------| 
|----------------|----------------|----------------| 
|3-------3-------|3--(3)--3-------|3-------3-----3-| 

REPEAT VERSE 2 

  
less
plus
Add to Songbook Print Version How to play lesson Submit videolesson
Click the best TAGS for this song:
None of them
Contributor: kennkhol Correct

If you can not find the chords or tabs you want, look at our partner E-chords. If you are a premium member, you have total access to our video lessons.

If you find a wrong Bad To Me from Family Of The Year, click the correct button above.

login/signup
my songbooks
my recent views
my submits