tools Ultimate Tabs

Start AutoScroll Font Size Down Font Size Up

Find us on Facebook

chords
tabs
bass
ukulele keyboards
drums
flute
harmonica
guitar pro
video
Ultimate-Tabs

Idisco

------------------------------------------------------------------------------         
                            iDisco - Farin Urlaub Racing Team
-------------------------------------------------------------------------------
Album: Faszination Weltraum (2014)
Tabbed by: Venga888
E-mail: [email protected]

Tuning:1/2 step down (Zombiestimmung)


Riff 1 (gezupft, Längsstriche sind Taktstriche)
eb|----0-------0--------0----|----0-------0--------0----|----1-------1------1---|
Bb|-------1-------1--------1-|-------1-------1--------1-|-------1------1------1-|
Gb|-2--------2-------2-------|-0--------0-------0-------|-2--------2-----2------|
Db|--------------------------|--------------------------|-----------------------|
Ab|--------------------------|--------------------------|-----------------------|
Eb|--------------------------|--------------------------|-----------------------|

eb|----1-------1------1---|
Bb|-------3------3------3-|
Gb|-2--------2-----2------|
Db|-----------------------|
Ab|-----------------------|
Eb|-----------------------|

Riff 2 
eb|-------------------------|-------------------------|-------------------------|-------------|
Bb|-13--1313--13--13--131213|-13--1313--13--13--131513|-13--1313--13--13--131513|-15--1515--15|
Gb|-14--1414--14--14--141414|-12--1212--12--12--121212|-14--1414--14--14--141414|-14--1414--14|
Db|-------------------------|-------------------------|-------------------------|-------------|
Ab|-------------------------|-------------------------|-------------------------|-------------|
Eb|-------------------------|-------------------------|-------------------------|-------------|

Fill 1 (gezupft, Längsstriche signalisieren längere Pause )

eb|-5--7--8--8--88-|--7-8-10-8--7-7h8p7--5-5--12 12---12h13p12--10--12--13-13--12--10-8-10----|
Bb|-5--------------|--------------------------------------------------------------------------|
Gb|-5--------------|--------------------------------------------------------------------------|
Db|----------------|--------------------------------------------------------------------------|
Ab|----------------|--------------------------------------------------------------------------|
Eb|----------------|--------------------------------------------------------------------------|

Fill 2
eb|-0h1-333--1--0-----0h1p0------|
Bb|----------------3--------1-3--|
Gb|------------------------------|
Db|------------------------------|
Ab|------------------------------|
Eb|------------------------------|

Fill 3 
eb|-1-1--1-h3-1-0-----|
Bb|----------------3--|
Gb|-------------------|
Db|-------------------|
Ab|-------------------|
Eb|--------------------|

Fill 4 
eb|--/5--7-8-888----7-8-10--8--3--5tr------13tr-12tr-10tr-13tr-12tr-10tr-|
Bb|----------------------------------------------------------------------|
Gb|----------------------------------------------------------------------|
Db|----------------------------------------------------------------------|
Ab|----------------------------------------------------------------------|
Eb|----------------------------------------------------------------------|


Intro: 
Riff 1 2x 2tes mal akkorde einzeln anschlagen (Am C F Dm) 
Riff 1 2x mit Fill 1


Verse: 
      Am        C       F               Dm      
Wo du bist ist egal es gibt sie mittlerweile 
    Am         C        F               Dm 
überall Jedes Mal sind sie schon wieder in der Überzahl 

Riff 1 2x mit Fill 2 

       Am             C            F               Dm 
Manche sind schon als Kind manche werdens erst allmählich
         Am        C             F              Dm 
stets passiv agressiv doch angeblich sind sie selig 

Prechorus mit Riff 2 

Am                                       C
Du kannst dich längst nicht mehr wehren weil sie sich täglich vermehren 
F                                     Dm
schon morgens früh in der Bahn stehen und dich mit Kuhaugen ansehen 
Am                                   C
Du möchtest gar nicht mehr rausgehen weil sie schon an deinem Haus lehn' 
F                            Dm
und so beängstigend aussehen

Chorus: 
                       F                   Am                             G
Du bist umzingelt von Idioten, lebendigen Toten sie riechen schon ganz schlecht 
                       F                               Am                     G
Du bist umgeben von Schwachmaten sie müssen nichts wie raten und haben trotzdem Recht 
               F           Am            G
Und du wünschst dieser Welt dass endlich Hirn vom Himmel fällt 
            F                 Am             G 
Es wär schön wenn sie verstehen zum Homo Sapiens gehört nicht nur aufrecht gehen 


Riff 1 2x mit Fill 3
 

Verse:
           Am        C     F          Dm 
Du hast so oft diskutiert Vorschläge gemacht 
        Am               C               F                  Dm 
und messerscharf argumentiert es hat leider nichts gebracht


Prechorus mit Riff 2  


Am                           C
Wenn dann die lieben Kollegen dir deine Nerven zersägen
F                           Dm
Sie haben gerad genug Bregen um das Büro auszufegen 
Am                             C 
Was wird als nächstes passieren musst du dein Hirn amputieren 
F                           Dm
Weil sie so wenig kapieren 


Chorus:
                       F                      Am               G
Du bist umzingelt von Idioten, Denken ist verboten, Wissen illegal 
                            F                      Am                 G
Du bist umgeben von Schwachmaten die auf ne Lösung warten täglich überall 
               F           Am             G
Und du wünschst dieser Welt dass endlich Hirn vom Himmel fällt
            F                  Am          G
Es wär schön wenn sie verstehen zum Homo Sapiens gehört nicht nur aufrecht gehen 


Riff 1 2x mit Fill 4 

                       F                   Am                             G
Du bist umzingelt von Idioten, lebendigen Toten sie riechen schon ganz schlecht 
                       F                               Am                G
Du bist umgeben von Schwachmaten sie müssen nichts wie raten und haben immer Recht 
               F           Am            G
Und du wünschst dieser Welt dass endlich Hirn vom Himmel fällt 
            F                 Am             G 
Es wär schön wenn sie verstehen zum Homo Sapiens gehört nicht nur aufrecht gehen 

less
plus
Add to Songbook Print Version How to play lesson Submit videolesson
Click the best TAGS for this song:
None of them
Contributor: lalolovi Correct

If you can not find the chords or tabs you want, look at our partner E-chords. If you are a premium member, you have total access to our video lessons.

If you find a wrong Bad To Me from Farin Urlaub Racing Team, click the correct button above.

login/signup
my songbooks
my recent views
my submits