S Fear Factory

Bonescraper (ver. 2) tab

Fear Factory

tools Ultimate Tabs

Start AutoScroll Font Size Down Font Size Up

Find us on Facebook

chords
tabs
bass
ukulele
keyboards
drums
flute
harmonica
guitar pro
video
Ultimate-Tabs

Bonescraper (ver. 2)

FEAR FACTORY - BONESCRAPER                             [email protected] 
 
 
Tuning: Drop A 
 
 
MAIN 
|-----------------------------------------------| 
|-2----------------5----------------7-----------| 
|-2--2----2-----2--5--5----5-----5--7-----------| 
|-0--2----2-----2--3--5----5-----5--5---5-5-5-5-| 
|----2----2-----2-----5----5-----5--------------| 
                .                .      . . . .       
 
 
|-----------------------------------------------| 
|-2----------------5----------------7-----------| 
|-2--2----2-----2--5--5----5-----5--7-----------| 
|-0--2----2-----2--3--5----5-----5--4---4-4-4-4-| 
|----2----2-----2-----5----5-----5--------------| 
                .                .      . . . . 
 
 
|-----------------------------------------------| 
|-2----------------5----------------7-----------| 
|-2--2----2-----2--5--5----5-----5--7-----------| 
|-0--2----2-----2--3--5----5-----5--5---5-5-5-5-| 
|----2----2-----2-----5----5-----5--------------| 
                .                .      . . . .           
 
 
|-----------------------------------------------| 
|-2h3----3-----3--3/5----5---------5------------| 
|-2h3----3-----3--3/5----5---------5------------| 
|-0h1----1-----1--1/3----3------3--3----3-3-3-3-| 
|-----------------------------------------------| 
               .                .       . . . . 
 
 
 
|---------------------------------------------| 
|-3--2----2----2--3--2----2----2--3--2--3--3--| 
|-3--2----2----2--3--2----2----2--3--2--3--3--| 
|-3--2----2----2--3--2----2----2--3--2--3--3--| 
  .  .    .    .  .  .    .    .  .  .  .  .   
 
 
|----------------------------------------------| 
|-3--2----2----2--3--2----2----2--3-3-2--0--0--| 
|-3--2----2----2--3--2----2----2--3-3-2--0--0--| 
|-3--2----2----2--3--2----2----2--3-3-2--0--0--| 
  .  .    .    .  .  .    .    .  . . .  .  . 
 
 
 
VERSE                                                                      
|------------------------------------------------------------*---------------| 
|----------------------------------------------------------------------------| 
|-1--0--0------0--1--0--1--0--0-------1-1-1-0-------0--1--0--1-4-4-4-1-4-4-4-| 
  .  .  .      .  .  .  .  .  .       . . . .       .  .  .  . . . . . . . . 
 
 
( * 4th Times Ending) 
|---------------------------------| 
|---------------------------------| 
|-1-4-4-4-1-4-4-4-2-5-5-5-2-5-5-5-| 
  . . . . . . . . . . . . . . . . 
 
 
 
VERSE  (continued) 
|------------------------------------------------------------*---------------| 
|----------------------------------------------------------------------------| 
|-2--1--1------1--2--1--2--1--1-------2-2-2-1-------1--2--1--2-5-5-5-2-5-5-5-|  
  .  .  .      .  .  .  .  .  .       . . . .       .  .  .  . . . . . . . .    
 
 
( * 4th Times Ending) 
|-----------------------------------| 
|-----------------------------------| 
|-2-5-5-5-2-5-5-5-1-4-4-4-1-4-4-4-1-| 
  . . . . . . . . . . . . . . . . . 
 
 
 
(1:45) 
|-----------------------------------------------------| 
|-----------------------------------------------------| 
|-2-2-2-1------2-2-2-1------2-2-2-1------2-2-2-1------| 
 
  . . . .      . . . .      . . . .      . . . . 
 
 
 
SPEED RIFF 
|-3-------------------------------------------3-------| 
|-3-------------------------------------------3---2---| 
|-1-------------------------------------------1---2---| 
|-----2-2-2-2-2-2-2-2-2-2-2-2-2-2-2-2-2-2-2-2-----2---| 
 
 
|-3-----------------------------------------------------------| 
|-3-----------------------------------------------------------| 
|-1-----------------------------------------------------------| 
|-----2-2-2-2-2-2-2-2-2-2-2-2-2-2-2-2-2-2-2-2-2-2-2-2-2-2-2-2-| 
 
 
|-----------------------------------------------------------------| 
|-----------------5-5-5-5-----------------5-5-5-5-----------------| 
|-----------------------------------------------------------------| 
|-5-5-5-5-5-5-5-5---------5-5-5-5-5-5-5-5---------5-5-5-5-5-5-5-5-| 
 
 
|-----------------------------------------------------------------| 
|-----------------8-8-8-8-----------------7-7-7-7-----------------| 
|-----------------------------------------------------------------| 
|-8-8-8-8-8-8-8-8---------7-7-7-7-7-7-7-7---------7-7-7-7-7-7-7-7-| 
 
 
 
 
POWER RIFF                     
|----------------------------------------------------------------------------| 
|---------4b------------------------------------4----------------------------| 
|-3-------3b----------------------------3-------3----------------------------| 
|-3---2---2b----------------------------3---2---2----------------------------| 
|-1---2----------------2----3--2--2--2--1---2----------------2----3--2----2--| 
|-----2----------------2----3--2--2--2------2----------------2----3--2----2--| 
                       .    .  .  .  .                       .    .  .    . 
 
 
|----------------------------------------------------------------------------------| 
|---------4b-----------------------------------------------------------------------| 
|-3-------3b-----------------------------------------------------------------------| 
|-3---2---2b----------------------------5----5----5---------8----8-----------------| 
|-1---2----------------2----3--2--2--2--5----5----5---------8----8-----8--8--7--7--| 
|-----2----------------2----3--2--2--2--5----5----5---------8----8-----8--8--7--7--| 
                       .    .  .  .  .                                 .  .  .  . 
 
 
 
 
(2nd Version) 
|----------------------------------------------------------------------------| 
|---------4b-----------------------------------4-----------------------------| 
|-3-------3b---------------------------3-------3-----------------------------| 
|-3---2---2b---------------------------3---2---2-----------------------------| 
|-1---2----------------2----3--2----2--1---2----------------2----3--2--2--2--| 
|-----2----------------2----3--2----2------2----------------2----3--2--2--2--| 
                       .    .  .    .                       .    .  .  .  . 
 
 
|---------------------------------------------------------------------------------| 
|---------4b----------------------------------------------------------------------| 
|-3-------3b----------------------------------------------------------------------| 
|-3---2---2b---------------------------5----5----5---------8----8-----------------| 
|-1---2----------------2----3--2----2--5----5----5---------8----8-----8--8--7--7--| 
|-----2----------------2----3--2----2--5----5----5---------8----8-----8--8--7--7--| 
                       .    .  .    .                                 .  .  .  . 
 
 
 
 
(3:20) 
|----------------------| 
|--7-------------------| 
|--7-------------------| 
|--7-------------------| 
 
 
 
(4:03) 
|-3-------------------------------------------3---3-------| 
|-3-------------------------------------------3---3---2---| 
|-1-------------------------------------------1---1---2---| 
|-----2-2-2-2-2-2-2-2-2-2-2-2-2-2-2-2-2-2-2-2---------2---| 
       
less
plus
Add to Songbook Print Version How to play lesson Submit videolesson
Click the best TAGS for this song:
None of them
Contributor: lagedavi Correct

If you can not find the chords or tabs you want, look at our partner E-chords. If you are a premium member, you have total access to our video lessons.

If you find a wrong Bad To Me from Fear Factory, click the correct button above.

login/signup
my songbooks
my recent views
my submits