S Feeder

Find The Colour (ver. 2) tab

Feeder

tools Ultimate Tabs

Start AutoScroll Font Size Down Font Size Up

Find us on Facebook

chords
tabs
bass
ukulele
keyboards
drums
flute
harmonica
guitar pro
video
Ultimate-Tabs

Find The Colour (ver. 2)

Tabbed By Ollie 
 
Easy Song, Goes Like So? 
 
For The Verse, alternate between A and Bm (577655) and (x24432) 
 
Chorus is A, Bm, G, D (577655), (x24432), (355433), (x5777x) 
 
Solo: Guitar one plays this: 
----------------------------------------------------------} 
--------------------------------------------------------14} 
-12-11-12-11-------14-12-14---12-11-12-11------14-12-14---} 
--------------12-11--------14-------------12-11-----------} 
----------------------------------------------------------} 
----------------------------------------------------------} 
 
---------------------------------------------------------------------} 
-15-14-12-15-14-12-17-15-14-15-14-12---------------------------------} 
------------------------------------14-12-11-------------------------} 
---------------------------------------------14-12-11-12-11-9-7-9-11-} 
---------------------------------------------------------------------} 
---------------------------------------------------------------------} 
 
Guitar 2 plays: G, D, A, G, D, E (E = (x7999x)) 
 
No Idea About The Outro Tho! 
  
Easy Wasn?t It? Yeah, Rock On Feeder, Give Us More!!! Ollie :D 
 
 
less
plus
Add to Songbook Print Version How to play lesson Submit videolesson
Click the best TAGS for this song:
None of them
Contributor: Frikvick Correct

If you can not find the chords or tabs you want, look at our partner E-chords. If you are a premium member, you have total access to our video lessons.

If you find a wrong Bad To Me from Feeder, click the correct button above.

login/signup
my songbooks
my recent views
my submits