S Feeder

Piece By Piece (ver. 3) bass

Feeder

tools Ultimate Tabs

Start AutoScroll Font Size Down Font Size Up

Find us on Facebook

chords
tabs
bass
ukulele
keyboards
drums
flute
harmonica
guitar pro
video
Ultimate-Tabs

Piece By Piece (ver. 3)





Verse
|-------8-------10--------8----------------------------------------
|--10-------8--------10-------8------------------------------------
|---------------------------------8--------------------------------
|------------------------------------------------------------------
Repeated


Bridge
|------------------------------------------------------------------
|------------------------------------------------------------------
|--6----5----------------------------------------------------------
|----------6-------------------------------------------------------


Chorus
|-------7-8---7-----8-10---12-----7-8---7-----8---10---12----------
|--10-----------8-------------10----------8----------------10------
|------------------------------------------------------------------
|------------------------------------------------------------------


Middle
|------------------------------------------------------------------
|--5------6--------------------------------------------------------
|-------------8----------------------------------------------------
|------------------------------------------------------------------
 
less
plus
Add to Songbook Print Version How to play lesson Submit videolesson
Click the best TAGS for this song:
None of them
Contributor: homeseda Correct

If you can not find the chords or tabs you want, look at our partner E-chords. If you are a premium member, you have total access to our video lessons.

If you find a wrong Bad To Me from Feeder, click the correct button above.

login/signup
my songbooks
my recent views
my submits