Fever Ray

If I Had A Heart bass

Fever Ray

tools Ultimate Tabs

Start AutoScroll Font Size Down Font Size Up

Find us on Facebook

chords
tabs
bass
ukulele keyboards
drums
flute
harmonica
guitar pro
video
Ultimate-Tabs

If I Had A Heart

-------------------------------------------------------------------------------
                       If I had a heart - Fever Ray
-------------------------------------------------------------------------------
Tabbed by: hailston

Tuning: stranded

This is my first tab so please leave a comment if you think anything needs to
change, and I will get to it as soon as possible.

(0.12)
G|---------------------------------------|
D|---------------------------------------|       let ring
A|---------------------------------------|
E|-0-------------------------------------|


(0.23)
G|---------------------------------------------------------------------------|
D|---------------------------------------------------------------------------|
A|---------------------------------------------------------------------------|
E|-0---3---5---5----3-0-3----3-0---------------------------------------------|

                             or (whatever's easier)

G|-----------------------------------------------------------------------------|
D|-----------------------------------------------------------------------------|
A|---------0---0---------------------------------------------------------------|
E|-0---3------------3-0-3----3-0-----------------------------------------------|


| /  slide up
| \  slide down
| h  hammer-on
| p  pull-off
| ~  vibrato
| +  harmonic
| x  Mute note
===============================================================================
less
plus
Add to Songbook Print Version How to play lesson Submit videolesson
Click the best TAGS for this song:
None of them
Contributor: fresrbok Correct

If you can not find the chords or tabs you want, look at our partner E-chords. If you are a premium member, you have total access to our video lessons.

If you find a wrong Bad To Me from Fever Ray, click the correct button above.

login/signup
my songbooks
my recent views
my submits