S Fight Like Apes

Tie Me Up With Jackets bass

Fight Like Apes

tools Ultimate Tabs

Start AutoScroll Font Size Down Font Size Up

Find us on Facebook

chords
tabs
bass
ukulele
keyboards
drums
flute
harmonica
guitar pro
video
Ultimate-Tabs

Tie Me Up With Jackets

INTRO

G|-9--9--9--9--9--9--9--9-----9-9-9-9--10--10--10--10------------|
D|--10-10-10-10-10-10-10-10--9-9-9-9-----10--10--10--10----------|
A|---------------------------------------------------------------|
E|---------------------------------------------------------------| x3

G|-9--9--9--9--9--9--9--9-----9-9-9-9--10---10-10-10--|
D|--10-10-10-10-10-10-10-10--9-9-9-9---10---10-10-10--|
A|-------------------------------------8----8--8--8---|
E|----------------------------------------------------|


VERSE

G|---------------------------------------------------------------|
D|---------------------------------------------------------------|
A|----------------7-7-7-7-7-8-7-5-------------4-5-5-5-5-5-7-5----|
E|-5-5-5-5-5-5-5-5---------------8-8-8-8-8-8-8---------------8---| x3

G|------------------------------------------------------------------|
D|------------------------------------------------------------------|
A|----------------7-7-7-7-7-8-7-5--3-5-3-5-3-5-3-5-3-5-3-5-5-7-5-7--|
E|-5-5-5-5-5-5-5-5--------------------------------------------------|


SECOND VERSE

"I can't compete with all you talk about"

G|-----------------------------------------------------------------|
D|-----------------------------------------------------------------|
A|-8-8-8-8-8-8-8-8-5-5-5-5-5-5-5-4-3-3-3-3-3-3-3-4-5-5-5-5-5-5-5-7-|
E|-----------------------------------------------------------------| x4


LAST VERSE

G|-----------------------------------------------------------------|
D|-----------------------------------------------------------------|
A|-----------------5-5-5-5-5-5-5-5----------------3-3-3-3-3-3-3-3--|
E|-1-1-1-1-1-1-1-1----------------5-5-5-5-5-5-5-5------------------| x2

END

G|-----------------------------------|
D|-----------------------------------|
A|-3-5-3-5-3-5-3-5-3-5-3-5-5-7-5-7-3-|
E|-----------------------------------|
less
plus
Add to Songbook Print Version How to play lesson Submit videolesson
Click the best TAGS for this song:
None of them
Contributor: samusumm Correct

If you can not find the chords or tabs you want, look at our partner E-chords. If you are a premium member, you have total access to our video lessons.

If you find a wrong Bad To Me from Fight Like Apes, click the correct button above.

login/signup
my songbooks
my recent views
my submits