S Five Iron Frenzy

Sweet Talkin Woman bass

Five Iron Frenzy

tools Ultimate Tabs

Start AutoScroll Font Size Down Font Size Up

Find us on Facebook

chords
tabs
bass
ukulele
keyboards
drums
flute
harmonica
guitar pro
video
Ultimate-Tabs

Sweet Talkin Woman

Intro (2x)

D---------------------------------------|
A------------------------------33333333-|
E-1111-3333-55555555-5555-3333----------|

Verse

D-----5-------5--------------------------------------
A---3---0-2-3----3-2-0--7--0-----3--------2--------7-
E----------------------------3-1----3-1-0----3-4-5---

A-3-4-5-5-7-77-66-5-5------------------------------33333--------|
E---------------------1111-3333-55555555-5555-3333------3333333-|

Chorus

D---7-5--5-2-5-7----3333-2222-3333-555-----|
A-3--------------7---------------------2-3-|

Intro 
Verse
Chorus
Intro (1x)
Verse
Chorus
Intro (2x)
Verse
Chorus (2x)
 
less
plus
Add to Songbook Print Version How to play lesson Submit videolesson
Click the best TAGS for this song:
None of them
Contributor: Appejber Correct

If you can not find the chords or tabs you want, look at our partner E-chords. If you are a premium member, you have total access to our video lessons.

If you find a wrong Bad To Me from Five Iron Frenzy, click the correct button above.

login/signup
my songbooks
my recent views
my submits