tools Ultimate Tabs

Start AutoScroll Font Size Down Font Size Up

Find us on Facebook

chords
tabs
bass
ukulele keyboards
drums
flute
harmonica
guitar pro video
Ultimate-Tabs

Lemon Tree

-------------------------------------------------------------------------------
                             LEMON TREE - Fools Garden
-------------------------------------------------------------------------------
Tabbed by: brodarte
E-mail: [email protected]

Tuning: std

Note that "10", "11" and "12" are ten, eleven and twelve and not 1 and 0, etc.

Intro:

G|------------------------------- -12-8-10-- -8-10-|
D|------------------------8-889-10-- ---- -10---- -|
A|8-886-----6-8-886-----6-------- -- ---- -- ---- -|      
E|------8-88--------8-88--------- -- ---- -- ---- -|


I'm sitting here in the boring room?

G|----------------------------------------------------- -12-8-10-- -8-10-|
D|----------------------------------------------8-889-10-- ---- -10---- -|
A|8-886-----6-8-886-----6-8-886----6-8-886----6-------- -- ---- -- ---- -|     
E|------8-88--------8-88-------8-88-------8-88--------- -- ---- -- ---- -|


I'm driving around in may car?

G|----------------------------------------------------- -- - - ---------|
D|----------------------------------------------8-889-10-1010- ---------|
A|8-886-----6-8-886-----6-8-886----6-8-886----6-------- -- - 11-8---6-8-|     
E|------8-88--------8-88-------8-88-------8-88--------- -- - - ---8-----|


I wonder how, I wonder why?

G|-------------------------------------8865-|
D|6-66----------------------------6-66-----8|
A|-----6-66-7-8-88-----------6-66-----------|
E|-----------------8-88-9-99----------------|


I'm turning my head, up and down?

G|------------------------------------------|
D|6-66----------------------------6-66--8---|
A|-----6-66-7-8-88-----------6-66-----------|
E|-----------------8-88-9-99----------------|


Sing dah?

G|------------------------------- -12-8-10-- -8-10-|
D|------------------------8-889-10-- ---- -10---- -|
A|8-886-----6-8-886-----6-------- -- ---- -- ---- -|      
E|------8-88--------8-88--------- -- ---- -- ---- -|


I'm sitting here, I miss the power?

G|----------------------------------------------------- -- - - ---------|
D|----------------------------------------------8-889-10-1010- ---------|
A|8-886-----6-8-886-----6-8-886----6-8-886----6-------- -- - 11-8---6-8-|     
E|------8-88--------8-88-------8-88-------8-88--------- -- - - ---8-----|


Isolation is not good for me?

G|---------------------------------------- -|
D|------------------------------6-6-6-6-/10-|
A|----------8-88-8-8876-66-6-66----------- -|
E|8-88-8-88------------------------------- -|


I'm steppin' around in the dessert of joy?

G|----------------------------------------------------- -12-8-10-- -8-10-|
D|----------------------------------------------8-889-10-- ---- -10---- -|
A|8-886-----6-8-886-----6-8-886----6-8-886----6-------- -- ---- -- ---- -|     
E|------8-88--------8-88-------8-88-------8-88--------- -- ---- -- ---- -|


I wonder how, I wonder why?

G|-------------------------------------8865-|
D|6-66----------------------------6-66-----8|
A|-----6-66-7-8-88-----------6-66-----------|
E|-----------------8-88-9-99----------------|


I'm turning my head, up and down?

G|------------------------------------------|
D|6-66----------------------------6-88-88-88|
A|-----6-66-7-8-88-----------6-66-----------|
E|-----------------8-88-9-99----------------|


I wonder how, I wonder why?

G|---------------------------------------------------|
D|6-66--------------------------------------------6--|
A|-----6-66-7-8-88-----------6666------6666----6-----|
E|-----------------8-88-9-99------9-99------9--------|


| /  slide up
| \  slide down
| h  hammer-on
| p  pull-off
| ~  vibrato
| +  harmonic
| x  Mute note


This is based off "Floemmeuno" bass interpretation of Lemon Tree on youtube.
Title: Bass Cover Fools Garden - Lemon Tree.  

===============================================================================
less
plus
Add to Songbook Print Version How to play lesson Submit videolesson
Click the best TAGS for this song:
None of them
Contributor: gabbnick Correct

If you can not find the chords or tabs you want, look at our partner E-chords. If you are a premium member, you have total access to our video lessons.

If you find a wrong Bad To Me from Fool's Garden, click the correct button above.

login/signup
my songbooks
my recent views
my submits